Guitaretab - guitar tabs
Song name
# A B C D E F G H I J K L M N O P Q R S T U V W X Y Z
Home / K / Kyuss / 100 tab

Kyuss - 100 tab

                                                                   Kyuss
                                                                    100



              with the wah pedal right here                                                    
      E       E     E  E  E  E  E  E  E   8x  E  E  E  E  E  E  E  E   
C ||-----||-------------------------------||--------------------------|
G ||-----||------------x--x--x--x--x------||--------------------------|
D#||-----||*-----------x--x--x--x--x-----*||--------------------------|
A#||--7--||*--------9--x--x--x--x--x--7--*||-----9--9--9--9--9--9--7--|
F ||--5--||---------7-----------------5---||-----7--7--7--7--7--7--5--|
C ||-----||-------------------------------||-----0--0--0--0--0--0-----|


  E  E  E  E  E  E  E  E     E  E  E  E  E  E  E   E   
--------------------------|---------------------------|
--------------------------|---------------------------|
--------------------------|---------------------------|
-----9--9--9--9--9--9--7--|--L--9--9--9--9--9--9--12--|
-----7--7--7--7--7--7--5--|--L--7--7--7--7--7--7--10--|
-----0--0--0--0--0--0-----|-----0--0--0--0--0--0------|


                             Verse 1                       
  E  E  E  E  E  E  E  E     E       E  E  E  E  E  E  E   
--------------------------|-------------------------------|
--------------------------|-------------------------------|
--------------------------|-------------------------------|
-----9--9--9--9--9--9--7--|----------9--9--9--9--9--9--7--|
-----7--7--7--7--7--7--5--|----------7--7--7--7--7--7--5--|
-----0--0--0--0--0--0-----|----------0--0--0--0--0--0-----|


  E  E  E  E  E  E  E  E     E  E  E  E  E  E  E   E   
--------------------------|---------------------------|
--------------------------|---------------------------|
--------------------------|---------------------------|
--L--9--9--9--9--9--9--7--|--L--9--9--9--9--9--9--12--|
--L--7--7--7--7--7--7--5--|--L--7--7--7--7--7--7--10--|
-----0--0--0--0--0--0-----|-----0--0--0--0--0--0------|


  E  E  E  E  E  E  E  E     E  E  E  E  E  E  E  E   
--------------------------|--------------------------|
--------------------------|--------------------------|
--------------------------|--------------------------|
--L--9--9--9--9--9--9--7--|--L--9--9--9--9--9--9--7--|
--L--7--7--7--7--7--7--5--|--L--7--7--7--7--7--7--5--|
-----0--0--0--0--0--0-----|-----0--0--0--0--0--0-----|


  E  E  E  E  E  E  E  E     E  E  E  E  E  E  E   E   
--------------------------|---------------------------|
--------------------------|---------------------------|
--------------------------|---------------------------|
--L--9--9--9--9--9--9--7--|--L--9--9--9--9--9--9--12--|
--L--7--7--7--7--7--7--5--|--L--7--7--7--7--7--7--10--|
-----0--0--0--0--0--0-----|-----0--0--0--0--0--0------|


                              Chorus                    
  E  E  E  E  E  E  Q         Q      E  E  E  E  E  E   
-------------------------||----------------------------|
-------------------------||----------------------------|
-------------------------||*---------------------------|
--L--9--9--9--9--9--9----||*---------------------------|
--L--7--7--7--7--7--7----||---2------2--2--5--7--7--7--|
-----0--0--0--0--0--0----||---0------0--0--3--5--5--5--|


  E    E  Q    E  E  Q    10x  Q    E  E  E  E  E  E   
---------------------------||-------------------------|
---------------------------||-------------------------|
--------------------------*||-------------------------|
--------------------------*||-------------------------|
--7br--L--5----2--2--5-----||--2----2--2--5--7--7--7--|
--5br--L--3----0--0--3-----||--0----0--0--3--5--5--5--|

This is the first solo (lead guitar)     

||------------------------||
||--------------------8~--||
||--------------7--9------||
||------------------------||
||------------------------||
||------------------------||                  
              
---------------------------|--------------------------|
--L~--------L~--8--10------|----------------------8~--|
-----------------------9~--|--L~--------L~--7--9------|
---------------------------|--------------------------|
---------------------------|--------------------------|
---------------------------|--------------------------|


  H         E   E  E   E      Q.      Q     E  E  E    
---------------------------|--------------------------|
--L~--------L~-----8--10b--|--L------10~----------8~--|
----------------9----------|----------------7--9------|
---------------------------|--------------------------|
---------------------------|--------------------------|
---------------------------|--------------------------|


  H         E   E   E  E      H         E   E  E  E    
---------------------------|--------------------------|
--L~--------L~--8--10------|----------------------8~--|
-----------------------9~--|--L~--------L~--7--9------|
---------------------------|--------------------------|
---------------------------|--------------------------|
---------------------------|--------------------------|


  H         E   E  E   E       E  E  E  H         E   
----------------------------|------------------------|
--L~--------L~-----8--10br--|--L--8-----8~-----------|
----------------9-----------|--------9---------------|
----------------------------|------------------------|
----------------------------|------------------------|
----------------------------|------------------------|

                              first solo Rhythm Guitar part                      
  E    E  Q    E  E  E  E     E      E  E  E  E  E  E  E   
---------------------------|------------------------------|
---------------------------|------------------------------|
---------------------------|------------------------------|
------------------------7--|--L------9--9--9--9--9--9--7--|
--7br--L--5----2--2--2--5--|--L------7--7--7--7--7--7--5--|
--5br--L--3----0--0--0-----|---------0--0--0--0--0--0-----|


  E  E  E  E  E  E  E  E     E  E  E  E  E  E  E   E   
--------------------------|---------------------------|
--------------------------|---------------------------|
--------------------------|---------------------------|
--L--9--9--9--9--9--9--7--|--L--9--9--9--9--9--9--12--|
--L--7--7--7--7--7--7--5--|--L--7--7--7--7--7--7--10--|
-----0--0--0--0--0--0-----|-----0--0--0--0--0--0------|


  E  E  E  E  E  E  E  E     E  E  E  E  E  E  E  E   
--------------------------|--------------------------|
--------------------------|--------------------------|
--------------------------|--------------------------|
--L--9--9--9--9--9--9--7--|--L--9--9--9--9--9--9--7--|
--L--7--7--7--7--7--7--5--|--L--7--7--7--7--7--7--5--|
-----0--0--0--0--0--0-----|-----0--0--0--0--0--0-----|


  E  E  E  E  E  E  E  E     E  E  E  E  E  E  E   E   
--------------------------|---------------------------|
--------------------------|---------------------------|
--------------------------|---------------------------|
--L--9--9--9--9--9--9--7--|--L--9--9--9--9--9--9--12--|
--L--7--7--7--7--7--7--5--|--L--7--7--7--7--7--7--10--|
-----0--0--0--0--0--0-----|-----0--0--0--0--0--0------|


                             Verse 2                       
  E  E  E  E  E  E  E  E     E       E  E  E  E  E  E  E   
--------------------------|-------------------------------|
--------------------------|-------------------------------|
--------------------------|-------------------------------|
--L--9--9--9--9--9--9--7--|--L-------9--9--9--9--9--9--7--|
--L--7--7--7--7--7--7--5--|--L-------7--7--7--7--7--7--5--|
-----0--0--0--0--0--0-----|----------0--0--0--0--0--0-----|


  E  E  E  E  E  E  E  E     E  E  E  E  E  E  E   E   
--------------------------|---------------------------|
--------------------------|---------------------------|
--------------------------|---------------------------|
--L--9--9--9--9--9--9--7--|--L--9--9--9--9--9--9--12--|
--L--7--7--7--7--7--7--5--|--L--7--7--7--7--7--7--10--|
-----0--0--0--0--0--0-----|-----0--0--0--0--0--0------|


  E  E  E  E  E  E  E  E     E  E  E  E  E  E  E  E   
--------------------------|--------------------------|
--------------------------|--------------------------|
--------------------------|--------------------------|
--L--9--9--9--9--9--9--7--|--L--9--9--9--9--9--9--7--|
--L--7--7--7--7--7--7--5--|--L--7--7--7--7--7--7--5--|
-----0--0--0--0--0--0-----|-----0--0--0--0--0--0-----|


  E  E  E  E  E  E  E  E     E  E  E  E  E  E  E   E   
--------------------------|---------------------------|
--------------------------|---------------------------|
--------------------------|---------------------------|
--L--9--9--9--9--9--9--7--|--L--9--9--9--9--9--9--12--|
--L--7--7--7--7--7--7--5--|--L--7--7--7--7--7--7--10--|
-----0--0--0--0--0--0-----|-----0--0--0--0--0--0------|


                            Chorus 2                    
  E  E  E  E  E  E  Q       Q        E  E  E  E  E  E   
-------------------------|-----------------------------|
-------------------------|-----------------------------|
-------------------------|-----------------------------|
--L--9--9--9--9--9--9----|-----------------------------|
--L--7--7--7--7--7--7----|--2--------2--2--5--7--7--7--|
-----0--0--0--0--0--0----|--0--------0--0--3--5--5--5--|


  E    E  Q    E  E  Q       Q    E  E  E  E  E  E     E    E  Q    E  E  Q     
--------------------------|-------------------------|--------------------------|
--------------------------|-------------------------|--------------------------|
--------------------------|-------------------------|--------------------------|
--------------------------|-------------------------|--------------------------|
--7br--L--5----2--2--5----|--2----2--2--5--7--7--7--|--7br--L--5----2--2--5----|
--5br--L--3----0--0--3----|--0----0--0--3--5--5--5--|--5br--L--3----0--0--3----|


  Q    E  E  E  E  E  E     E    E  Q    E  E  Q     
-------------------------|--------------------------|
-------------------------|--------------------------|
-------------------------|--------------------------|
-------------------------|--------------------------|
--2----2--2--5--7--7--7--|--7br--L--5----2--2--5----|
--0----0--0--3--5--5--5--|--5br--L--3----0--0--3----|

2nd solo lead                                             
     Q      E  E  E  E  E  E     E  E  E  H         E   
||---------------------------|------------------------|
||---------------------------|------------------------|
||---------------------------|------------------------|
||---------------------------|-----5--5--7~-----------|
||--2------7--7--7--7--7--7--|------------------------|
||--0------0--0--0--0--0--0--|------------------------|

[ Tab from: http://www.guitaretab.com/k/kyuss/191760.html ]
  Q    E  E  E  E  E  E     W                   Q    E  E  E  E  E  E   
-------------------------|-------------------|-------------------------|
-------------------------|-------------------|-------------------------|
-------------------------|-------------------|-------------------------|
-------------------------|-------------------|-------------------------|
--2----7--7--7--7--7--7--|-------------------|--2----7--7--7--7--7--7--|
--0----0--0--0--0--0--0--|-------------------|--0----0--0--0--0--0--0--|


  E   E   H           Q        Q    E  E  E  E  E  E     W                 
-----12--12b~--------12~----|-------------------------|-------------------|
----------------------------|-------------------------|-------------------|
----------------------------|-------------------------|-------------------|
----------------------------|-------------------------|-------------------|
----------------------------|--2----7--7--7--7--7--7--|-------------------|
----------------------------|--0----0--0--0--0--0--0--|-------------------|


   w/wah                                                          
   E     E  E  E  E   E   E   E     E   E  E  E   E   E   E   E   
---------------------------------|-------------------------------|
--15----15--x--x-----15--15--15--|------x--x--x--15--15--15--15--|
--12----12--x--x-----12--12--12--|------x--x--x--12--12--12--12--|
---------------------------------|-------------------------------|
---------------------------------|-------------------------------|
---------------------------------|-------------------------------|


  E   E  E  E   E   E   E   E      E   E  E   E  E   Q.      
-------------------------------|----------------------------|
------x--x--x--15--15--15--15--|---x--15--x--15-----14------|
------x--x--x--12--12--12--12--|---x--12--x--12-----12------|
-------------------------------|----------------------------|
-------------------------------|----------------------------|
-------------------------------|----------------------------|


  Q     E   E  E   E   E   E     E   E  E  E   E   E   E   E   
------------------------------|-------------------------------|
-------15--15------x---x--15--|------x--x--x--15--15--15--15--|
-------12--12------x---x--12--|------x--x--x--12--12--12--12--|
------------------------------|-------------------------------|
------------------------------|-------------------------------|
------------------------------|-------------------------------|


  E   E  E  E   E   E   E   E      E   E  E   E  E   Q.      
-------------------------------|----------------------------|
------x--x--x--15--15--15--15--|---x--15--x--15-----14------|
------x--x--x--12--12--12--12--|---x--12--x--12-----12------|
-------------------------------|----------------------------|
-------------------------------|----------------------------|
-------------------------------|----------------------------|


   E   E   E    Q     E   E   E      E    E   E   E  E  E   E  E   
---------------------15----------|---------------15---------------|
---x---x--14h--15----15---x---x--|--14h--15---x--15-----x--14-----|
---x---x--12----L---------x---x--|--12----L---x---------x--12-----|
---------------------------------|--------------------------------|
---------------------------------|--------------------------------|
---------------------------------|--------------------------------|


   E   E   E    Q     E   E   E      E    E   E   E  E  E   E  E   
---------------------15----------|---------------15---------------|
---x---x--14h--15----15---x---x--|--14h--15---x--15-----x--14-----|
---x---x--12----L---------x---x--|--12----L---x---------x--12-----|
---------------------------------|--------------------------------|
---------------------------------|--------------------------------|
---------------------------------|--------------------------------|


   E   E   E    Q     E   E   E      E    E   E   E  E  E   E  E   
---------------------15----------|---------------15---------------|
---x---x--14h--15----15---x---x--|--14h--15---x--15-----x--14-----|
---x---x--12----L---------x---x--|--12----L---x---------x--12-----|
---------------------------------|--------------------------------|
---------------------------------|--------------------------------|
---------------------------------|--------------------------------|


  E  E   E  E   E  E  E   E     E   E   Q     E  Q    E    
-----------------------------|---------------------------||
--x--x--14-----14-----x--14--|-----14--14----14----------||
--x--x--12-----12-----x--12--|-----12--12----12----------||
-----------------------------|------------------------7--||
-----------------------------|------------------------5--||
-----------------------------|---------------------------||
  This is the 2nd solo (rhythm)                                                                  
  Q      E  E  E  E  E  E     W                   Q    E  E  E  E  E  E   
---------------------------|-------------------|-------------------------|
---------------------------|-------------------|-------------------------|
---------------------------|-------------------|-------------------------|
---------------------------|-------------------|-------------------------|
--2------7--7--7--7--7--7--|-------------------|--2----7--7--7--7--7--7--|
--0------0--0--0--0--0--0--|-------------------|--0----0--0--0--0--0--0--|


  W                   Q    E  E  E  E  E  E     W                 
-------------------|-------------------------|-------------------|
-------------------|-------------------------|-------------------|
-------------------|-------------------------|-------------------|
-------------------|-------------------------|-------------------|
-------------------|--2----7--7--7--7--7--7--|-------------------|
-------------------|--0----0--0--0--0--0--0--|-------------------|


  Q    E  E  E  E  E  E     W                   W                 
-------------------------|-------------------|-------------------|
-------------------------|-------------------|-------------------|
-------------------------|-------------------|-------------------|
-------------------------|-------------------|-------------------|
--2----7--7--7--7--7--7--|-------------------|-------------------|
--0----0--0--0--0--0--0--|-------------------|-------------------|


  W                   W                   W                   W                 
-------------------|-------------------|-------------------|-------------------|
-------------------|-------------------|-------------------|-------------------|
-------------------|-------------------|-------------------|-------------------|
-------------------|-------------------|-------------------|-------------------|
-------------------|-------------------|-------------------|-------------------|
-------------------|-------------------|-------------------|-------------------|


  W                   W                   W                   W                 
-------------------|-------------------|-------------------|-------------------|
-------------------|-------------------|-------------------|-------------------|
-------------------|-------------------|-------------------|-------------------|
-------------------|-------------------|-------------------|-------------------|
-------------------|-------------------|-------------------|-------------------|
-------------------|-------------------|-------------------|-------------------|


  W                   W                   W                   W                 
-------------------|-------------------|-------------------|-------------------|
-------------------|-------------------|-------------------|-------------------|
-------------------|-------------------|-------------------|-------------------|
-------------------|-------------------|-------------------|-------------------|
-------------------|-------------------|-------------------|-------------------|
-------------------|-------------------|-------------------|-------------------|


  W                   W                   H        Q    E  E   
-------------------|-------------------|----------------------|
-------------------|-------------------|----------------------|
-------------------|-------------------|----------------------|
-------------------|-------------------|-------------------7--|
-------------------|-------------------|-------------------5--|
-------------------|-------------------|----------------------|


  Outro                                                  
  E     E  E  E  E  E  E  E     E  E  E  E  E  E  E  E   
-----------------------------|--------------------------|
-----------------------------|--------------------------|
-----------------------------|--------------------------|
--L-----9--9--9--9--9--9--7--|--L--9--9--9--9--9--9--7--|
--L-----7--7--7--7--7--7--5--|--L--7--7--7--7--7--7--5--|
--------0--0--0--0--0--0-----|-----0--0--0--0--0--0-----|


  E  E  E  E  E  E  E   E     E  E  E  E  E  E  E  E   
---------------------------|--------------------------|
---------------------------|--------------------------|
---------------------------|--------------------------|
--L--9--9--9--9--9--9--12--|--L--9--9--9--9--9--9--7--|
--L--7--7--7--7--7--7--10--|--L--7--7--7--7--7--7--5--|
-----0--0--0--0--0--0------|-----0--0--0--0--0--0-----|


  E  E  E  E  E  E  E  E     E  E  E  E  E  E  E  E   
--------------------------|--------------------------|
--------------------------|--------------------------|
--------------------------|--------------------------|
--L--9--9--9--9--9--9--7--|--L--9--9--9--9--9--9--7--|
--L--7--7--7--7--7--7--5--|--L--7--7--7--7--7--7--5--|
-----0--0--0--0--0--0-----|-----0--0--0--0--0--0-----|


  E  E  E  E  E  E  E   E     E  E  E  E  E  E  E  E    
---------------------------|--------------------------||
---------------------------|--------------------------||
---------------------------|--------------------------||
--L--9--9--9--9--9--9--12--|--L--9--9--9--9--9--9--9--||
--L--7--7--7--7--7--7--10--|--L--7--7--7--7--7--7--7--||
-----0--0--0--0--0--0------|-----0--0--0--0--0--0--0--||


Tabbed by liquidbassial. probs some problems, hit me up if there is thanks, this is a great song

Duration Legend
---------------
W - whole
H - half
Q - quarter
E - 8th
S - 16th
T - 32nd
X - 64th
. - note dotted
|-n-|  - n-tuplets


Tablature Legend
----------------
L - tied note
x - dead note
g - grace note
(n) - ghost note
> - accentuded note
NH - natural harmonic
AH - artificial harmonic
TH - tapped harmonic
SH - semi harmonic
PH - pitch harmonic
h - hammer on
p - pull off
b - bend
br - bendRelease
pb - preBend
pbr - preBendRelease
brb - bendReleaseBend
\n/ - tremolo bar dip
\n - tremolo bar dive
-/n - tremolo bar Release up
/n\ - tremolo bar inverted dip
/n - tremolo bar return
-\n - tremolo bar Release down
S - shift slide
s - legato slide
/ -  slide into from below or out of upwards
\ -  slide into from above or out of downwards
~ - vibrato
W - wide vibrato
tr - trill
TP - tremolo picking
T - tapping
S - slap
P - pop
< - fade in
^ - brush up
v - brush down
Related for 100 tab
100 chords by Kyuss