Song name
# A B C D E F G H I J K L M N O P Q R S T U V W X Y Z

Kyuss - Black Widow tab

Black Widow by Kyuss
from Wretch


MAIN RIFF
c---------------------------------------------------------|
G---------------------------------------------------------|
Eb--------------------------------------------------------|
Bb-12-12-12-12-12-12-12-12-12-12-12-12-12-12-12-12---3-5--|
F--12-12-12-12-12-12-12-12-12-12-12-12-12-12-12-12---3-5--|
C--12-12-12-12-12-12-12-12-12-12-12-12-12-12-12-12---3-5--|

SOLO
c----------------------------------------------------------------------------|
G----------------------------------------------------------------------------|
Eb------------------------------------------------------------10-12br-10-----|
Bb----------12-10-12-10--10h12p10-10h12p10-10h12p10-10-----12------------12--|
F----------------------------------------------------------------------------|
C--12-12-12---------------------------------------------12-------------------|


SOLO cont.
c-----------10-------13br 13-10--|
G--10-13p10----13p10-------------|
Eb-------------------------------|
Bb-------------------------------|
F--------------------------------|
C--------------------------------|

OUTRO
c--------------------------------------------------------|
G--------------------------------------------------------|
Eb-------------------------------------------------------|
Bb-12-12-12-12-12-12-12-12-12-12-12-12-12-12-12-12-12-0--|
F--12-12-12-12-12-12-12-12-12-12-12-12-12-12-12-12-12-0--|
C--12-12-12-12-12-12-12-12-12-12-12-12-12-12-12-12-12-0--|

Any corrections please comment
Thanks
Tap to rate this tab
 
# A B C D E F G H I J K L M N O P Q R S T U V W X Y Z