Song name
# A B C D E F G H I J K L M N O P Q R S T U V W X Y Z

Kyuss - Freedom Run tab

Kyuss - Freedom Run
Blues for the REd Sun

---------------------------|
---------------------------|
-7b~-7b~-7h9p7-9-7---------|
-------------------9-7~-7\-|
---------------------------|
---------------------------|

------------------------------|
------------------------------|
------------------------------|
-9b~-9-9-9b~-9p7--0h7p0h7p0h7-|
------------------------------|
------------------------------|

-------------------------------------------------------------------------|
-------------------------------------------------------------------------|
------12-----------12---------12-----------12---------12-----------12----|
---14----14-----14----14---14----14-----14----14---14----14-----14----14-|
-0----------0-0----------0----------0-0----------0----------0-0----------|
-------------------------------------------------------------------------|

-----------------------------------------------|
-----------------------------------------------|
-------12-------12-------12-------12-12h14-12~-|
-12-14----12-14----12-14----12-14--------------|
-----------------------------------------------|
-----------------------------------------------|

--------------------------------------------------------------------------|
--------------------------------------------------------------------------|
--------------------------------------------------------------------------|
--------10~------12\11-12\11------10~------12--------10~------12\11-12\11-|
---0000-----0000-10\9--10\9--0000-----0000-10-000000-----0000-10\9--10\9--|
--------------------------------------------------------------------------|
pm ....     ....             ....     ....    ......     ....

-----------------------------------|
-----------------------------------|
-----------------------------------|
---10-9----------10-9-----------10-|
-0------0-10-9-0------0-10-9-00-10-|
--------------------------------8--|

-----------------------------|
-----------------------------|
-----------------------------|
----------3/12-12--12-12--12-|
-0-000-0--1/10-10--10-10--10-|
-----------------------------|

---------------------------|
---------------------------|
-7b~-7b~-7h9p7-9-7---------|
-------------------9-7~-7\-|
---------------------------|
---------------------------|

----------------------|
----------------------|
----------------------|
-----7-9b~-9b-11b-13b-|
-7-9------------------|
----------------------|

----------------------------------------------|
----------------------------------------------|
----11--------------11--------------11--------|
-13----13-11~----13----13-11~----13----13-11~-|
----------------------------------------------|
----------------------------------------------|

-------------------------------------------------|
-------------------------------------------------|
----11----------11----------11----------11-------|
-13----13-11-13----13-11-13----13-11-13----13-11-|
-------------------------------------------------|
-------------------------------------------------|
i cant make out the rest of the solo it gets kinda fast

-------------------|
-------------------|
-------------------|
-12\11-12\11----12-|
-10\9--10\9-----10-|
-------------------|

-----------------------------------|
-----------------------------------|
-----------------------------------|
---10-9----------10-9-----------10-|
-0------0-10-9-0------0-10-9-00-10-|
--------------------------------8--|

-------------------------------------------|
-------------------------------------------|
-------------------------------------------|
-------------------------------------------|
---00-00-00-00---00-00-00-00---00-00-00-00-|
-------------------------------------------|
pm .. .. .. ..   .. .. .. ..   .. .. .. ..

-----------------------------------|
-----------------------------------|
-----------------------------------|
---10-9----------10-9-----------10-|
-0------0-10-9-0------0-10-9-00-10-|
--------------------------------8--|

-------------------------------------------|
-------------------------------------------|
-------------------------------------------|
-------------------------------------------|
---00-00-00-00---00-00-00-00---00-00-00-00-|
-------------------------------------------|
pm .. .. .. ..   .. .. .. ..   .. .. .. ..

-----------------------------------|
-----------------------------------|
-----------------------------------|
---10-9----------10-9-----------10-|
-0------0-10-9-0------0-10-9-00-10-|
--------------------------------8--|

---
---
---
-7-
-0-
---
Tap to rate this tab
# A B C D E F G H I J K L M N O P Q R S T U V W X Y Z