Song name
# A B C D E F G H I J K L M N O P Q R S T U V W X Y Z

Kyuss - Green Machine tab

Song: Green Machine
Artist: Kyuss
Album: Blues for the Red Sun
Year: 1992
Tuning: C, F, Bb, Eb, G, C
Guitarist: Josh Homme

Intro/Main Riff:
   PM__  PM__  PM__  PM__  PM__    PM__  PM__  PM__  PM__  PM__
C |----------------------------------------------------------------|
G |----------------------------------------------------------------|
Eb|-----9-----9-----9-----9-----14b-----9-----9-----9-----9--------|
Bb|-----9-----9-----9-----9-----14b-----9-----9-----9-----9--------|
F |-----7-----7-----7-----7-------------7-----7-----7-----7--------|
C |-0-0---0-0---0-0---0-0---0-0-----0-0---0-0---0-0---0-0---0-0--/-|

Chorus:
C |-------------------------------------------------------------|
G |-------------------------------------------------------------|
Eb|----------------------------5-5-5--5-5-5--7-7-7--12-12-12-12-|
Bb|-2--2-2-2-2--2--2-2--2-2-2--x-x-x--x-x-x--x-x-x---x--x--x--x-|
F |-2--2-2-2-2--2--2-2--2-2-2--3-3-3--3-3-3--5-5-5--10-10-10-10-|
C |-0--0-0-0-0--0--0-0--0-0-0-----------------------------------|

Bridge/Solo:
C |-------------------------------------------------------------------|
G |-------------------------------------------------------------------|
Eb|-------------------15-14-12-15-14-12-15-14-12-12-15-14-12-15-14-12-|
Bb|---5---5-7b8r-7-5/-------------------------------------------------|
F |-7---7-------------------------------------------------------------|
C |-------------------------------------------------------------------|

C |------------------------------|
G |------------------------------|
Eb|-12~12~12~~~~~~12~~~~~~~~~12--|
Bb|------------------------------|
F |------------------------------|
C |------------------------------|

Play this after the solo:
   PM__  PM__  PM__  PM__  PM__    PM__  PM__  PM__  PM__  PM__
C |----------------------------------------------------------------|
G |----------------------------------------------------------------|
Eb|-----9-----9-----9-----9-----9-9-----9-----9-----9-----9----14b-|
Bb|-----9-----9-----9-----9-----9-9-----9-----9-----9-----9----14b-|
F |-----7-----7-----7-----7-----7-7-----7-----7-----7-----7--------|
C |-0-0---0-0---0-0---0-0---0-0-----0-0---0-0---0-0---0-0---0-0----|
                                   { play this part more times 3x }

Thats basically about it, here's the song breakdown for you:
Intro/Main riff 10x
Chorus 4x
Main Riff 6x
Chorus 4x
Main riff 1x
Bridge (Solo) 1x
Main Riff 5x
Chorus 4x
Main riff (outro) 2x

Tab Legend:
b = bend
/ = slide up (no number, slide to infinity)
\ = slide down (no number, slide to infinity)
r = bend release
h = hammer on
p = pull off
PM = palm mute
Tap to rate this tab
 
# A B C D E F G H I J K L M N O P Q R S T U V W X Y Z