Song name
# A B C D E F G H I J K L M N O P Q R S T U V W X Y Z

Led Zeppelin - Whole Lotta Love tab

  |  Gtr. 2      1                                    1      |
e-|--------------------12------------------------------------|-
B-|--------------)-12------15p12----------------------)~~~~--|-
G-|------------14-----------------15p14p12--14--12--14-------|-
D-|----------------------------------------------------------|-
A-|----------------------------------------------------------|-
E-|----------------------------------------------------------|--

e-|----------------------------------------------------------|-
B-|-----------------3----------------------------------------|-
G-|------------2/4-----4p2p0--4p2p0--------------------------|-
D-|----------------------------------2p0-----2p0-------------|-
A-|---------------------------------------2-------2-0h2------|-
E-|----------------------------------------------------------|
  |              1           1   1        1       | 
e-|--------------------12----)---)---15---)~~~----|-
B-|--------------)-12------15--15-------15--------|-
G-|------------14---------------------------------|-
D-|-----------------------------------------------|-
A-|-----------------------------------------------|-
E-|-----------------------------------------------|-

		      2
e-|--------------------)''''''''\----------------------|-
B-|------------17----20------------17------20p17~~~----|-
G-|------------------------------------18--------------|-
D-|----------------------------------------------------|-
A-|----------------------------------------------------|-
E-|----------------------------------------------------|-

e-|----------------19----19--18--17---------------------|-
B-|------------17--------------------20p17--20p17~~~----|-
G-|-----------------------------------------------------|-
D-|-----------------------------------------------------|-
A-|-----------------------------------------------------|-
E-|-----------------------------------------------------|-

|                     1/2 1/2 1/2   1               | 
e-|----------------------)---)---)----)--19-----------|-
B-|------------17--19--19--19--19---19-------17~~~----|-
G-|---------------------------------------------------|-
D-|---------------------------------------------------|-
A-|---------------------------------------------------|-
E-|---------------------------------------------------|-



Tap to rate this tab
# A B C D E F G H I J K L M N O P Q R S T U V W X Y Z