Linkin Park - The Catalyst tab

Artist: Linkin Park
Song: The Catalyst
Album: A Thousand Suns

Tabbed by: Beckett Woodworth
Email: beckett360@yahoo.com

Tuning: Standard

Intro (Keyboard):

God bless us everyone
We're a broken people living under loaded gun
And it can't be outfoght
It can't be outdone
It can't out matched
It can't be outrun
No

e|-----------------|
B|-----------------|
G|--7---5---3---5--| Repeat throughout
D|--7---5---3---5--|
A|--5---3---1---3--|
E|-----------------|

No! 
Palm Muted Guitar Part:
e|-------------------------------------------|
B|-------------------------------------------|
G|--7-7-7-7-7-7-7-7-7-7-7-7-7-7-7-7-7-7-7-7--|
D|--7-7-7-7-7-7-7-7-7-7-7-7-7-7-7-7-7-7-7-7--|
A|--5-5-5-5-5-5-5-5-5-5-5-5-5-5-5-5-5-5-5-5--|
E|-------------------------------------------|

   F 
Noo
   F
And when I close my eyes tonight
   F
To symphonies of blinding light
   D
God bless us everyone
   D
We're a broken people living under loaded gun
   F
Oh
   F
Like memories in cold decay
   F
Transmissions echoing away
   C
Far from the world of you and I
   D
Where oceans bleed into the sky

e|---------------------------|
B|-8-6--6---------6----------|
G|-----7---7-5--5---7--5-7-5-|
D|-------------8-------------|
A|---------------------------|
E|---------------------------|

e|-------------------------------------------------|
B|-------------------------------------------------|
G|-7-7-7-7-7-7-3-3-3-3-3-3-3-3-3-3-5-5-5-5-5-5-5-5-|
D|-7-7-7-7-7-7-3-3-3-3-3-3-3-3-3-3-5-5-5-5-5-5-5-5-|
A|-5-5-5-5-5-5-1-1-1-1-1-1-1-1-1-1-3-3-3-3-3-3-3-3-|
E|-------------------------------------------------|
Tap to rate this tab
 
# A B C D E F G H I J K L M N O P Q R S T U V W X Y Z