Song name
# A B C D E F G H I J K L M N O P Q R S T U V W X Y Z

Made Out Of Babies - Stranger tab

MADE OUT OF BABIES

STRANGER

tabbed by dan (yellowledbetter_69@hotmail.co.uk)

DROP-D TUNING

(I think delay is used here)
|--------------------|--------------------------------|
|--------------------|--------------------------------|
|--------------6--6--|--6-------6--6---6-------6--6---|
|-------8---8--------|----8---8----------8---8--------|
|---8-8---8----------|------8--------------8----------|
|--------------------|--------------------------------|
intro                  this part is also first part of verse

|------------------------|
|------------------------|
|------------------------|
|----8-7--------8--1-----|
|----8-7--------8--1-----|
|----8-7--------8--1-----|
verse part 2

|---17--18--15--13----17--18--15--17p15p13---|
|--------------------------------------------|
|--------------------------------------------|
|--------------------------------------------|
|--------------------------------------------|
|--------------------------------------------|
quiet bridge part

|---10--13-----------10--13---------------|
|-----------13--10-----------13--10-------|
|-----------------------------------------|
|-----------------------------------------|  repeat bridge parts
|-----------------------------------------|  as necessary
|-----------------------------------------|
quiet bridge part continued

|-----------------------------------------------------------------------|
|-----------------------------------------------------------------------|
|--10-\-7---13-13-13-13-13-13-13-13--10-\-7---13-13-13-13--7-7-7-7-7-7--|
|-----------------------------------------------------------------------|
|---8-\-5---11-11-11-11-11-11-11-11---8-\-5---11-11-11-11--5-5-5-5-5-5--|
|-----------------------------------------------------------------------|
post bridge 1     play twice

|-------------------------------------------------------------|
|-------------------------------------------------------------|
|--10-\-7---6-6--6-6-6--6-6-6--10-\-7---6-6--6-6-6--6-6-6-----|
|-------------------------------------------------------------|
|---8-\-5---4-4--4-4-4--4-4-4---8-\-5---4-4--4-4-4--4-4-4-----|
|-------------------------------------------------------------|
next verse  (hold on tight....)     then play the post bridge part and then repeat this 
again

then back to the first verse part

|-----------------------------------------------------|
|-----------------------------------------------------|
|---7--7--7--7-8-7---7-8-7---7--7--7--7-8-7---7-8-7---|
|---7--7--7--------7---------7--7--7--------7---------|
|---5--5--5------------------5--5--5------------------|
|---0--0--0------------------0--0--0------------------|
third verse (?) part

|------------------------------------------------------|
|------------0---0----0---0------------0---0---0---0---|
|---5--5--5----5--------5-----5--5--5----5-------5-----|
|---5--5--5--------5----------5--5--5--------5---------|
|---3--3--3-------------------3--3--3------------------|
|------------------------------------------------------|
third verse continued

then repeat bridge

|--------------------------------------------------------------|
|--------------------------------------------------------------|
|-10-10-10-10-10-10-10-10---8-8-8-8-8-8-8-8-8\7-7-7-7-7-7-7-7--|
|--------------------------------------------------------------|
|--8--8--8--8--8--8--8--8---6-6-6-6-6-6-6-6-6\5-5-5-5-5-5-5-5--|
|--------------------------------------------------------------|
outro                   play this twice, then play next outro part twice and repeat a 
times

|-------------------------------------------------------------------------|
|-------------------------------------------------------------------------|
|--14-14-14-14-14-14-14--12-12-12-12-12-12-12-12\10-10-10-10-10-10-10-10--|
|-------------------------------------------------------------------------|
|--12-12-12-12-12-12-12--10-10-10-10-10-10-10-10\-8--8--8--8--8--8--8--8--|
|-------------------------------------------------------------------------|
outro continued

thats about everything. easy to figure out the order of the parts.
any suggestions/comments etc. email me.
Tap to rate this tab
# A B C D E F G H I J K L M N O P Q R S T U V W X Y Z