Song name
# A B C D E F G H I J K L M N O P Q R S T U V W X Y Z

Made Out Of Babies - Grimace tab

MADE OUT OF BABIES

GRIMACE

tabbed by dan (yellowledbetter_69@hotmail.co.uk)

DROP-D TUNING

|---------------------------------------------------------------|
|---------------------------------------------------------------|
|---------------------------------------------------------------|
|---------------------------------------------------------------|
|----12------------/13------------\12------------/13------------|
|---------------------------------------------------------------|
intro   w/ e-bow

|--------------------------------------------------------------|
|--------------------------------------------------------------|
|--------------------------------------------------------------|
|--------------------------------------------------------------|
|-----12-------8-------7----------12--------8---------7--------|
|--------------------------------------------------------------|
verse 1       w/ e-bow

|-----------------------------|
|-----------------------------|
|-----------------------------|
|-----------------------------|
|------5---------3------------|
|-----------------------------|
verse 1 continued     w/ e-bow

bass break


|-------|---------------------------------------|
|---0---|---------------------------------------|
|---0---|--14----14--14\10--9--10p9----9-10-9/--|
|---0---|---------------------------------------|
|---0---|--12----12--12\-8--7---7-7----7--8-7/--|
|-------|---------------------------------------|
                    all other verses            x2

|--------------------------------------|
|--------------------------------------|
|----7----8p7-----7\5-----5--6---5-----|
|--------------------------------------|
|----5----5-5-----5\3-----3--3---3-----|
|--------------------------------------|
all other verses continued

|------------------------------|
|------------------------------|
|----2-----2-----2-----2-------|
|----2-----2-----2-----2-------|
|----0-----0-----0-----0-------|
|------------------------------|
end verse 2

repeat verse again

|----------------------------------------|
|----------------------------------------|
|---14-14---14-14---14-14---14--14--14---|
|----------------------------------------|
|---12-12---12-12---12-12---12--12--12---|
|----------------------------------------|
chorus            x2

|------------------------------------|
|------------------------------------|
|--12-12---12-12-----5-4----7-6------|
|------------------------------------|
|--10-10---10-10-----3-2----5-4------|
|------------------------------------|
chorus continued

|------------------------------------|
|------------------------------------|
|------------------------------------|
|---------------10--x-x-x-x----------|
|------------8------x-x-x-x----------|
|----10--11---------x-x-x-x---10-----|
break 

a second guitar plays this the 3rd and 4th time with weird effect (ring mod?)
|---------------------------------------------------------|
|---------------------------------------------------------|
|--------------------11-----------------------------------|
|--12-13-12-12-13-12----12-10---12-13-12-12-13-12-10------|
|---------------------------------------------------------|
|---------------------------------------------------------|

that's everything. the rest is repeats.any comments, suggestions etc, email me.

Tap to rate this tab
# A B C D E F G H I J K L M N O P Q R S T U V W X Y Z