Song name
# A B C D E F G H I J K L M N O P Q R S T U V W X Y Z

Marilyn Manson - Tainted Love tab

-------------------------------------------------------------------------------
Tainted Love (Re-Tainted Interpretation Version) - Marilyn Manson  
-------------------------------------------------------------------------------
Tabbed by: bloodred16
Email: happytreefriends_firstblood@hotmail.com

This songs off the mOBSCENE single i think, i just found it on iTunes, it's
an awesome version of this song!! All you need is one acoustic guitar and away
you go!!  The chorus i couldn't really make out cuz the guitar part is very very
quite but i did my best!!  Enjoi...

Tuning: Standard (EADGBe)

Intro/Verse
e|---------------------------------------------------------------------------|
B|---------------------------------------------------------------------------|
G|-0--0-0-8-8-7--7-8-7--7-8-7------------------------------------------------|
D|-5--5-5-5-5-5--5-5-5--5-5-5------------------------------------------------|
A|---------------------------------------------------------------------------|
E|---------------------------------------------------------------------------|

Chorus 
e|---------------------------------------------------------------------------|
B|---------------------------------------------------------------------------|
G|-0--0-0-0--0-0-0--0-0-0--0-0---3---3-3--3-3-3---3-3--3-3---8---8-8--8-8-8--|
D|-5--5-5-5--5-5-5--5-5-5--5-5---5---5-5--5-5-5---5-5--5-5---5---5-5--5-5-5--|
A|---------------------------------------------------------------------------|
E|---------------------------------------------------------------------------|

e|---------------------------------------------------------------------------|
B|---------------------------------------------------------------------------|
G|8-8--8-8---5---5-5--5-5-5--5-5--5-5---5---5-5--5-5-5--5-5--5-5-------------|
D|5-5--5-5---5---5-5--5-5-5--5-5--5-5---5---5-5--5-5-5--5-5--5-5-------------|
A|---------------------------------------------------------------------------|
E|---------------------------------------------------------------------------|

Interlude
e|---------------------------------------------------------------------------|
B|---------------------------------------------------------------------------|
G|-0--0-0-3-3-8--8-8-3355----------------------------------------------------|
D|-5--5-5-5-5-5--5-5-5555----------------------------------------------------|
A|---------------------------------------------------------------------------|
E|------------------------(x2)-----------------------------------------------|

Verse
Chorus
Interlude (x12)
Chorus
Interlude (x4)

===============================================================================
Tap to rate this tab
 
# A B C D E F G H I J K L M N O P Q R S T U V W X Y Z