Song name
# A B C D E F G H I J K L M N O P Q R S T U V W X Y Z

Martin Jondo - Jah Gringo tab

Help us improve GuitareTab! Take a short survey!
-------------------------------------------------------------------------------
			     Jah Gringo - Martin Jondo
-------------------------------------------------------------------------------
Tabbed by: Anton Scheutz
Email: anton_sg@hotmail.com

Tuning: Standard

After each "two starting" notes - mute the guitar and use the palm of your hand up and 
twice. I think it sounds pretty much correct.

e|--------------------------------------------------------------------------|
B|--------------------------------------------------------------------------|
G|-----------------3-----------------3-----------------3---------5-----3----|
D|-----x-x-5-5-3h5-------x-x-5-5-3h5-------x-x-5-5-3h5-------x-x---3h5---5--|
A|-------------------------------------3-3---------------5-5----------------|
E|-3-3---------------6-6----------------------------------------------------|

===============================================================================
Related for Jah Gringo tab