Guitaretab - guitar tabs
Song name
# A B C D E F G H I J K L M N O P Q R S T U V W X Y Z

Martin Jondo - Raindrops tab

Gyroscope - Raindrops

This is my first tab. I'm not sure how it sounds on an eletric guitar but this is kind 
an acoustic version.
Also I made up the Chorus. please rate!

Main Riff/Verses:
e|----------------------------------------|
B|----------------------------------------|
G|-----------7---9--------------7---9-----|
D|----------------------------------------|
A|---5---5-------------5--5--5------------|
E|----------------------------------------|

e|-----------------------------------------------------|
B|-----------------------------------------------------|
G|-----------7---9-------------7---9---11(b)----9------|
D|-----------------------------------------------------|
A|---5---5-------------5---5---------------------------|
E|-----------------------------------------------------|

Something in Verses:
e|------------------------------------------|
B|----------10---12--------------10---12----|
G|------------------------------------------|
D|------------------------------------------|
A|--12--12--------------12-12-12------------|
E|------------------------------------------|

e|------------------------------------------|
B|---------10---12---14(b)---12-------------|
G|------------------------------------------|
D|------------------------------------------|
A|--12--12----------------------------------|
E|------------------------------------------|

PreChorus: ?
[ Tab from: http://www.guitaretab.com/m/martin-jondo/89141.html ]
e|-----------------------------------------------------|
B|-------------------12---10---8---7---8---7---5---3---|
G|-----------------------------------------------------|
D|--9-------7------------------------------------------|
A|--9-(x8)--7--(x8)------------------------------------|
E|--7-------5------------------------------------------|

Chorus:

e|-------------------------------------------------------|
B|-------------------------------------------------------|
G|-------------------------------------------------------|
D|-9-------7-------5--------2--0--2--0--2--0--4-4-4-4----|
A|-9-(x8)--7-(x8)--5-(x8)---2--0--2--0--2--0--4-4-4-4----|
E|-7-------5-------3--------0--0--0--0--0--0--2-2-2-2----|

Bridge: ?

e|---------------------------------------------|
B|--------------0---------------0--------------|
G|----------0---------------0------------------|
D|------7---------------7----------------------|
A|--5---------------5--------------------------|
E|---------------------------------------------|

Solo:

e|----------------------------------------------------------------|
B|----------10--12--10-----------------10---12--10-------10---12--|
G|----------------------------------------------------------------|
D|--12--12-------------12--12--12--12-----------------------------|
A|---------------------------------------------------12-----------|
E|----------------------------------------------------------------|
Related for Raindrops tab
Raindrops chords by Martin Jondo