Song name
# A B C D E F G H I J K L M N O P Q R S T U V W X Y Z

Mastodon - Oblivion tab

Band: Mastodon
Album: Crack the Skye
Track 1: Oblivion
Tabbed By: Jamie Hough

Before I start can I just point out that I know this isnt 100% correct - its probably
50% correct (if that). I have worked for HOURS on trying to get this tab down but Im
great difficulty. Therefore I thought I could post what Ive come up with so far and hope 
someone with a far greater knowledge of guitar can fill in the blanks/improve parts to
tab. I cower from the hordes of fellow Mastodon fans who will find this 'incomplete' tab 
and feel the need to tell me in the comments box, but please know that I am only trying 
aid the collective effort for someone to get a full tab out soon... lets begin!

 /  slide up
 \  slide down
 h  hammer-on
 p  pull-off
 x  Mute note
 .  P.M.

----------------------------------------------------------------------------
                               INTRO
----------------------------------------------------------------------------
(0:00-0:38)
D|-----------------------------------------|
A|-----------------------------------------|
F|----8-----------8------------------------|
C|---------0-----------0-------------------|
G|------6-----------6----------------------|
C|-------------------------0---------------|
                                                x8
D|-----------------------------------------|
A|-----------------------------------------|
F|----8-----------8------------------------|
C|---------0-----------0-------------------|
G|------6-----------6----------------------|
C|-------------------------0---------------|
                           x
(0:38-0:47)
D|-----------------------------------------|
A|-----------------------------------------|
F|----8------------------------------------|
C|---------0-------------------------------| x2
G|------6----------------------------------|
C|-------------0--10--0--12--0-------------|
               .      .      .

D|-------------------------------------------------------|
A|-------------------------------------------------------|
F|----8--------------------------------------------------|
C|---------0---------------------------------------------| x1
G|------6------------------------------------------------|
C|-------------0--10--0--12--0--13--0--12--0--10--0--12--|
               .      .      .      .      .      .
(0:47-0:57)
D|-----------------------------------------|
A|-----------------------------------------|
F|-10-------9---7-------10-----7----9------|
C|-------0-------------------0-------------| x2
G|----8-------7---5--------8-----5----7----|
C|-----------------------------------------|

----------------------------------------------------------------------------
                                VERSE
----------------------------------------------------------------------------

(0:57-1:18)
D|-------------------------------------------------------------------|
A|-------------------------------------------------------------------|
F|-------------------------------------------------------------------|
C|-------------------------------------------------------------------|
G|-------------------------------------------------------------------|
C|-10-000000-10-00-13-000000-10-00-10-000000-10-00-13-000000-10-00-9-|
      ......    ..    ......    ..    ......    ..    ......    ..
D|---------------------------------------------------------|
A|---------------------------------------------------------|            x2
F|---------------------------------------------------------|
C|---------------------------------------------------------|
G|---------------------------------------------------------|
C|-000000-9-00-16-000000-9-00-9-000000-9-00-16-000000-9-00-|
   ......   ..    ......   ..   ......   ..    ......   ..

(1:18-1:40)
This is the part that has been KILLING me to figure out - its based around the following
but I cant get it to sound right. Play around with it and PLEASE let me know if you
it out - its driving me insane!
D|-----------------------|       D|---------------------------|
A|-----------------------|       A|---------------------------|
F|-----------------------|  OR?  F|---------------------------|
C|-----------------------|       C|---------------------------|
G|--8---------7----------|       G|--------------8------------|
C|----7-8-7-8---7-8-7-8--|       C|--5-8-7-8-7-8---8-7-8-7-8--|
      . . . .   . . . .              . . . . . .   . . . . .


----------------------------------------------------------------------------
                               CHORUS
----------------------------------------------------------------------------

(1:40-1:58)
Again, Im not too sure if this is right, but its certianly not as far off the mark as
last part!
D|------------------------------------------------|
A|--6-6-66-6-6--------3---------------------------|
F|--5-5-55-5-5--2-5-2--2--2-2-22-2-2--------------|
C|--0-0-00-0-0------------2-2-22-2-2-----2--------|
G|------------------------0-0-00-0-0--0-3--3-0-3--|
C|------------------------------------------------|
        ..                    ..
D|------------------------------------------------------------------------|
A|--6-6-66-6-6--------3---------------------------8-8-88-8-8--------------|
F|--5-5-55-5-5--2-5-2--2--2-2-22-2-2--------------7-7-77-7-7--------------|
C|--0-0-00-0-0------------2-2-22-2-2-----2--------5-5-55-5-5--------------|
G|------------------------0-0-00-0-0--0-3--3-0-3--5-5-55-5-5-----5--------|
C|------------------------------------------------5-5-55-5-5-5-6---6-5-6--|
        ..                    ..

----------------------------------------------------------------------------
(1:58-3:19) Just the verse and chorus again
----------------------------------------------------------------------------

(3:19-3:33)
Again, this part has confused me - it should be simple and Im sure it is, but this is
Ive got...
D|-----------------------------------------|
A|--------------------------------4-6-4-6--|
F|---1-4-6-4-1-2-1-2----1-4-6-4-1----------|
C|--0-0-0-0-0----------0-0-0-0-0-----------|
G|-----------------------------------------|
C|-0------------------0--------------------|


----------------------------------------------------------------------------
                                     SOLO
----------------------------------------------------------------------------
(3:33-4:30) Yep, you guessed it, I dont have much of the solo either. However Ive got
opening part (3:33-3:55) to start you off...

D|-------------------------------------------------------------------------|
A|-10-10(let ring)-10-8-----8-8(let ring)-10-8---8-------------------------|
F|-----------------------10--------------------10--10-9-10-9-7-9-7--7-7----|
C|----------------------------------------------------------------10-------|
G|-------------------------------------------------------------------------|
C|-------------------------------------------------------------------------|

D|-----10--10-(let ring)--|
A|--/10--10---------------|
F|------------------------|
C|------------------------|
G|------------------------|
C|------------------------|

----------------------------------------------------------------------------
                                  BRIDGE
----------------------------------------------------------------------------

(4:30-4:41)
D|----------------------------------------------------------------|
A|----------------------------------------------------------------|
F|----------------------------------------------------------------|
C|----------------------------------------------------------------|
G|--8-7-8-10-8-10-12\0-0000--8-7-8-10-8-10-12-10-12-14-12\0-0000--|
C|--8-7-8-10-8-10-12\0-0000--8-7-8-10-8-10-12-10-12-14-12\0-0000--|
                       ....                                 ....

D|------------------------------------|
A|----------------------6-------------|
F|----------------------5-(let ring)--|
C|----------------------0-------------|
G|--8-7-8-10-8-10-00-0----------------|
C|--8-7-8-10-8-10-00-0----------------|
                  .. .
----------------------------------------------------------------------------
(4:41-5:18) Just the Chorus again
----------------------------------------------------------------------------

(5:18-5:47) Then just finish with this little variation played with the chorus...
D|-------------------------------------------|
A|-66-6-6-----------2-2-5-2/7-5--------------|
F|-55-5-5(let ring)-------------7(let ring)--|
C|-00-0-0------------------------------------|
G|-------------------------------------------|
C|-------------------------------------------|
   .. .

----------------------------------------------------------------------------
Ok, thats as much as I can do for now. Again, I apologise for its incompleteness and
but I hope Ive done enough for someone more talented than me to do the rest of the work.
comments and obviously corrections please leave in the box or message me - just try to 
nice!
Tap to rate this tab
# A B C D E F G H I J K L M N O P Q R S T U V W X Y Z