Song name
# A B C D E F G H I J K L M N O P Q R S T U V W X Y Z

Michael Buble - Everything tab

Everything                                                     Michael Buble

Intro

  D        E          D          E           D         E            Gm       Asus     D
e|---2-x----2-x-0---x|-----2-x----2-x|-0---x-----2-x|----2-x-0---x------2p0------x------|
B|-----x------x---3-x|-3-----x------x|---3-x-3-----x|------x---3-x-3-----------3-x-3—-3-|
G|-2---x-2-1--x-----x|----2--x-2-1—-x|-----x----2--x|2-1---x-----x---0h3-------2-x-0—-2-|
D|-0---x-0----------x|-0-----x-0-----|-------0-----x|0---------------------------x-0—-4-|
A|-------------------|---------------|--------------|------------------------0----------|
E|---------0--x-0----|-----------0—-x|-0---x--------|--0---x-0---x---3------------------|

         D                        E7
You're a falling star, You're the get away car.
           Gm          Asus           D
You're the line in the sand when I go too far.
           D                    E7
You're the swimming pool, on an August day.
               Gm       Asus        D
And You're the perfect thing to say.

	D                    E7
And you play it coy, but it's kinda cute.
             Gm              Asus          D
Ah, When you smile at me you know exactly what you do.
     D                             E7
Baby don't pretend, that you don't know it's true.
      Gm              Asus            D
Cause you can see it when I look at you.

              G  A  D                       G   A D
# And in this crazy life, and through these crazy times
       D7        G   A            Bm
  It's you, it's you, You make me sing.
               E7                  Gm          Asus     D
  You're every line, you're every word, you're everything.

e|------------------------| lead gtr fill in
B|------------------------|
G|-----11\9-7------11\9-7-|
D|-6/9---------5/8--------|
A|------------------------|
E|------------------------|

  D        E             Gm      Asus      D
e|---2-x----2-x|-0---x------2p0-|-----x------|
B|-----x------x|---3-x-3--------|---3-x-3—-3-|
G|-2---x-2-1—-x|-----x---0h3----|---2-x-0—-2-|
D|-0---x-0-----|----------------|-----x-0—-4-|
A|-------------|----------------|-0----------|
E|---------0—-x|-0---x---3------|------------|

	 D                          E7
You're a carousel, you're a wishing well,   |-----------------|
        Gm            Asus        D         |-----------------|
And you light me up, when you ring my bell. |-7--7--7-7--7-7--|repeat for 1st verse
	 D                    E7            |-----------------|    
You're a mystery, you're from outer space,  |-----------------|
             Gm            Asus    D        |-----------------|
You're every minute of my everyday.          Lead gtr fill in


    

 



 D                      E7
And I can't believe, uh that I'm your man,
      Gm               Asus           D
And I get to kiss you baby just because I can.
	 D                       E7
Whatever comes our way, ah we'll see it through,
        Gm                    Asus        D
And you know that's what our love can do.         To chorus# then gtr solo


[Solo]
e|-------------------------------------------------------------|
B|-------------------------------------------------------------|
G|----------------9/11--9—9p7---7---------7—-7h9-7-7-----------|
D|--------------7-------------7----9\---/5---7-----7-----------|
A|-5555-5-5-7/9--------------------------------------5----5-5--|
E|-----------------------------------------------------5h7-----|

e|------------------------------------------------------|
B|---------------------------------------10-8-----------|
G|-7-7-6-6------------11-9-9h7------11-9-0~----9/11-9-7-|
D|---------9-9-7-7-6/9--------7—5/8-0~---0~----0~-----0~|
A|----------------------------------0~------------------|
E|------------------------------------------------------|


    D       E7      Gm      D
So, La, La, La, La, La, La, La  x2

            A  B  E                       A   B E
And in this crazy life, and through these crazy times
     E7        A     B          C#m
It's you, it's you, You make me sing.
             F#                  A                C#m  F#
You're every line, you're every word, you're everything.
         F#                Am                              E
You’re every song. And I sing Along, cause you’re my everything.

e|-----------------------|
B|-----9\7-5---------9\7-|
G|-3/6-------3---2/5-----|
D|-----------------------|
A|-----------------------|
E|-----------------------|
  Lead gtr fill in

e|---------------------------------------------------------------------|
B|--9------9-7-------9----9-7------9-----9-7---------9p7--------9------|
G|-------------9--9-----------9-9------------9--9--------9-9~----------|
D|9----9-8---------9---9-8-------9----9-8--------7h10---------9---9-8~-|
A|---------------------------------------------------------------------|
D|---------------------------------------------------------------------|

    E       F#       Am     E
So, La, La, La, La, La, La, La
    E       F#       Am     E
So, La, La, La, La, La, La, La


by coolsoul music studio
Tap to rate this tab
# A B C D E F G H I J K L M N O P Q R S T U V W X Y Z