Song name
# A B C D E F G H I J K L M N O P Q R S T U V W X Y Z

Mindless Self Indulgence - Tornado tab

Song: Tornado
Artist: Mindless Self Indulgence
Album Tight (Released: April 20, 1999) (Same day as Hitler's Birthday and Columbine 
LOL)

Tabbed by ANKAM
A Nigga Known as Marlon
This is the absolutle correct tab of Tornado. It's very known that a lot of tabs on this 
is wrong
But the idiot who typed up the other tab on the site copied it from a bass tab *facepalm*
Here is how to properly play the song
Not much to it seriously. Easy for a beginner. It's just 3 riffs.

"1st riff"
e|--------------------------------|
B|--------------------------------|
G|--------------------------------|
D|---4-4-4-4--5-5-5-5--4-4-4-4--5-|
A|---4-4-4-4--5-5-5-5--2-2-2-2--3-|
E|---2-2-2-2--3-3-3-3-------------| 2X

"2nd Riff" (This is played only once)
e|--------------------------------|
B|--------------------------------|
G|--------------------------------|
D|---4-4-4-4--5-5-5-5--5---4------|
A|---4-4-4-4--5-5-5-5--3---2------|
E|---2-2-2-2--3-3-3-3-------------| 1X

"1st riff again"
e|--------------------------------|
B|--------------------------------|
G|--------------------------------|
D|---4-4-4-4--5-5-5-5--4-4-4-4--5-|
A|---4-4-4-4--5-5-5-5--2-2-2-2--3-|
E|---2-2-2-2--3-3-3-3-------------| 1x

"1st Riff again"
"I wanna be (6X)... Pretty"
e|--------------------------------|
B|--------------------------------|
G|--------------------------------|
D|---4-4-4-4--5-5-5-5--4-4-4-4--5-|
A|---4-4-4-4--5-5-5-5--2-2-2-2--3-|
E|---2-2-2-2--3-3-3-3-------------| 1x

3rd riff
"Down"
e|--------------------------------|
B|--------------------------------|
G|--------------------------------|
D|---6--6-7---6--6-7---6-6-6-6-7--|
A|---4--6-7---4--6-7---4-4-4-4-5--|
E|------4-5------4-5--------------| 2X


And pretty much that's all you need to know
-----------------------------------------------
Here is the order of it all if you need a bit more clarification.

1st Riff 2x
2nd Riff 1x
1st Riff 2x
3rd Riff 2x
1st Riff 2x
Programming (No Playing) (you then play after the this is mine nigga,  this is mine)
1st Riff 3x
3rd Riff 2x
Programming (No Playing) (Negate this if you are playing the "Crappy Little Demo" 
of Tornado from 1997.)
1st Riff 4x
(Done)

I hope this tab helps anyone period.
I'm a very big MSI fan and wanted to place up a correct tab.
It's the first tab I've ever typed too yet I'm not an idiot about it.
if you want or need to ask anything or want to tell me how much of a dumbass I am as well
Email me at cockcrockcrocket@live.com
Tap to rate this tab
# A B C D E F G H I J K L M N O P Q R S T U V W X Y Z