Guitaretab - guitar tabs
Song name
# A B C D E F G H I J K L M N O P Q R S T U V W X Y Z
Home / M / Ministry / Hero tab

Ministry - Hero tab

-----------------------------------------------------------------------------
				HERO - Ministry
-------------------------------------------------------------------------------
Tabbed by: Rick Petkovsek	
Email: petkovsek@hotmail.com

Tuning: Standard

Well boys and girls, this here is my first tab.  I'd become exasperated at the fact that
there is no tab here for "Hero" by Ministry, so I just strapped up and decided to do it
myself.  I haven't included the solo; if you can get it, I'd be forever in your debt.
He plays too fucking fast.  But the rest I've got down pretty good, you'll probably need
to listen to it a few times to get the rythym down.  Enjoy, Ministry-heads.  Al
Jourgenson is a deity!


INTRO     Played very fast, 3 times           Fourth Time
e|-------|---------------------------------|--------------------------------|
B|-------|---------------------------------|--------------------------------|
G|-3-3-3-|---------------------------------|--------------------------------|
D|-1-1-1-|-------2-1-0-------2-1-0-----1-1-|-------2-1-0-------2-1-0----1-0-|
A|-------|-3-2-1-------3-2-1-------3-3-----|-3-2-1-------3-2-1-------3-3----|
E|------|---------------------------------|--------------------------------|
[ Tab from: http://www.guitaretab.com/m/ministry/133089.html ]
MAIN RIFF  3 Times                      Fourth Time
e|-----------------------------------|-----------------------------------|
B|-----------------------------------|-----------------------------------|
G|--------------------------------7--|-----------------------------------|
D|----------5--------7--------8---5--|----------5--------7--------8-7----|
A|-0-0-0000-3-0-0000-5-0-0000-6-0----|-0-0-0000-3-0-0000-5-0-0000-6-5----|
E|-----------------------------------|-----------------------------------|

CHORUS ("Hurt, Fight!")                                     End with
e|---------------------------------------------------------|---------------|
B|---------------------------------------------------------|---------------|
G|---------------------------------------------------------|---------------|
D|-----------5-------------5-------------5-------------7---|--8--7---------|
A|-0-0-0-000-3-0-0-0-3-000-3-0-0-0-3-000-3-0-0-0-5-000-5-0-|--6--5---------|
E|---------------------------------------------------------|---------------|

AFTER SOLO
e|-------|-----------------|-----------------------------------------------|
B|-------|-----------------|-----------------------------------------------|
G|-------|-----------------|-----------------------------------------------|
D|-------|--------------5--|--------------5--------------------------------|
A|-6-5-3-|--0--3--5--6-----|--00-3--5--6-----------------------------------|
E|-------|-----------------|-----------------------------------------------|

OUTRO
e|-------------------------------------------------------------------------|
B|-------------------------------------------------------------------------|
G|-------------------------------------------------------------------------|
D|-------------------------------------------------------------------------|
A|--6-6-6-6-6-6-6-6--------------------------------------------------------|
E|-------------------------------------------------------------------------|

Play at eardrum-popping levels and play maniacally fast!  Rock on!
Related for Hero tab