Song name
# A B C D E F G H I J K L M N O P Q R S T U V W X Y Z

Minor Threat - Steppin Stone tab

Help us improve GuitareTab! Take a short survey!
Artist : Minor Threat
Song : Steppin Stone
Instrument : Guitar
Tabbed By : Darren Rozema
Comments :
I believe this song was originally written in standard
tuning. I have modified it to drop d because I like
playing in drop d and because I can. This is my
interpretation of the song.


Legend:
... = Palm Mute
/ = Slide Up


(Distortion)


	(0:06)
E|------------------------------------------------|
B|------------------------------------------------|
G|------------------------------------------------|
D|------------------------------------------------| (x6)
A|2--2--2--2--5--5--5--5--7--7--7--7-10-10-10-10--|
D|2--2--2--2--5--5--5--5--7--7--7--7-10-10-10-10--|


	(0:22)
E|------------------------------------------------|
B|------------------------------------------------|
G|------------------------------------------------|
D|------------------------------------------------| (x3)
A|2--2--2--2--5--5--5--5--7--7--7--7-10----10-10--|
D|2--2--2--2--5--5--5--5--7--7--7--7-10----10-10--|
  .....................................


	(0:30)
E|------------------------------------------------|
B|------------------------------------------------|
G|------------------------------------------------|
D|------------------------------------------------|
A|2--2--2--2--5--5--5--5--7--7--7--7-10-10-10-10--|
D|2--2--2--2--5--5--5--5--7--7--7--7-10-10-10-10--|


	(0:33)(Bass Guitar Starts)
E|------------------------------------------------|
B|------------------------------------------------|
G|------------------------------------------------|
D|------------------------------------------------| (x4)
A|2--2--2--2--5--5--5--5--7--7--7--7-10-10-10-10--|
D|2--2--2--2--5--5--5--5--7--7--7--7-10-10-10-10--|


	(0:44)
E|------------------|
A|------------------|
G|------------------|
D|------------------| (X6)
A|222---5---7---5---|
D|222---5---7---5---|


	(0:52)
E|--------------------|
B|--------------------|
G|--------------------|
D|-----2----0---------|
A|---------------2----|
D|2-------------------|


	(0:55)
E|--------------------|
B|--------------------|
G|--------------------|
D|-----2----0---------|
A|------------2/------|
D|2-------------------|


	(0:57)
E|------------------------------------------------|
B|------------------------------------------------|
G|------------------------------------------------|
D|------------------------------------------------| (x4)
A|2--2--2--2--5--5--5--5--7--7--7--7-10-10-10-10--|
D|2--2--2--2--5--5--5--5--7--7--7--7-10-10-10-10--|


	(1:08)
E|------------------------------------------------|
B|------------------------------------------------|
G|------------------------------------------------|
D|------------------------------------------------| (x3)
A|2--2--2--2--5--5--5--5--7--7--7--7-10----10-10--|
D|2--2--2--2--5--5--5--5--7--7--7--7-10----10-10--|
  .....................................


	(1:16)
E|------------------------------------------------|
B|------------------------------------------------|
G|------------------------------------------------|
D|------------------------------------------------| (x5)
A|2--2--2--2--5--5--5--5--7--7--7--7-10-10-10-10--|
D|2--2--2--2--5--5--5--5--7--7--7--7-10-10-10-10--|


	(1:29)
E|------------------|
B|------------------|
G|------------------|
D|------------------| (X6)
A|222---5---7---5---|
D|222---5---7---5---|


	(1:37)
E|--------------------|
B|--------------------|
G|--------------------|
D|-----2----0---------|
A|---------------2----|
D|2-------------------|


	(1:40)
E|--------------------|
B|--------------------|
G|--------------------|
D|-----2----0---------|
A|------------2/------|
D|2-------------------|


	(1:42)
E|------------------------------------------------|
B|------------------------------------------------|
G|------------------------------------------------|
D|------------------------------------------------| (x4)
A|2--2--2--2--5--5--5--5--7--7--7--7-10-10-10-10--|
D|2--2--2--2--5--5--5--5--7--7--7--7-10-10-10-10--|


	(1:53)
E|--------------------|
B|--------------------|
G|--------------------|
D|2-------------------|
A|2-------------------|
D|2-------------------|
Related for Steppin Stone tab