Song name
# A B C D E F G H I J K L M N O P Q R S T U V W X Y Z

Misc Cartoons - My Little Pony Friendship Is Magic - Hush Now Quiet Now tab

E-------4----6---4------------4------------4----------------------|
B--4---------------------4---------6--6---------6---4--2--1-------|
G-----------------------------------------------------------------|
D-----------------------------------------------------------------|
A-----------------------------------------------------------------|
E-----------------------------------------------------------------|

E-----4---6--4-----4--------6--4--3-------------------|
B--4------------4------33-----------------------------|
G-----------------------------------------------------|
D-----------------------------------------------------|
A-----------------------------------------------------|
E-----------------------------------------------------|


BRONIES FOR LIFE!!!!!!!!!!!!!
email me at lespaul115@gmail.com :D

hope i helped :)
Tap to rate this tab
 
# A B C D E F G H I J K L M N O P Q R S T U V W X Y Z