Song name
# A B C D E F G H I J K L M N O P Q R S T U V W X Y Z

Misc Cartoons - My Little Pony Friendship Is Magic - Hush Now Quiet Now tab

how about i sing you a lullaby yay

e------------------------------------------------------------------|
B------9--9--11--9-------------9-----------------------------------|
G---8---------------8--10--10-----10--8----------------------------|
D----------------------------------------11--10--------------------|
A------------------------------------------------------------------|
E------------------------------------------------------------------|

e------------------------------------------------------------------|
B------9--9--11--9-------------11--9--8----------------------------|
G---8---------------8--10--10------------8-------------------------|
D------------------------------------------------------------------|
A------------------------------------------------------------------|
E------------------------------------------------------------------|

i know this one oh how wanderful why dont you sing it with me

e------------9-9-9-9-8--------------------------------11-----------|
B---9-9-11-9-----------11-9-----9-9-11-9-11-11-11-11---------------|
G----------------------------8-------------------------------------|
D------------------------------------------------------------------|
A------------------------------------------------------------------|
E------------------------------------------------------------------|

e---9-9-8----------------8-8---9-9-8------------------9--11-11-----|
B----------11-9---9-9-11--------------11-9-----11-11---------------|
G---------------8--------------------------10----------------------|
D------------------------------------------------------------------|
A------------------------------------------------------------------|
E------------------------------------------------------------------|

e---------------11-11-11-11-10--------------------------------------|
B---10-10-12-10----------------13-11----10-10-12-10-12-12-12-12-----|
G------------------------------------10-----------------------------|
D-------------------------------------------------------------------|
A-------------------------------------------------------------------|
E-------------------------------------------------------------------|

e---12--/17\--5----------------------------------------------------|
B------------------------------------------------------------------|
G------------------------------------------------------------------|
D------------------------------------------------------------------|
A------------------------------------------------------------------|
E------------------------------------------------------------------|

on 12--/17\--5 slide to 12 then 17 then 5and release the strings
Tap to rate this tab
# A B C D E F G H I J K L M N O P Q R S T U V W X Y Z