Song name
# A B C D E F G H I J K L M N O P Q R S T U V W X Y Z

Misc Computer Games - Castle Crashers - Shop Theme tab

-------------------------------------------------------------------------------
                             Shop Theme - Castle Crashers
-------------------------------------------------------------------------------
Tabbed by: Jordan Stackhouse
E-mail: jstackhouse789@gmail.com

Tuning: Standard

Awesome song from an awesome game. Enjoy! (The asterisks were put in to make it 
easier to tab. Just listen to the song and you'll get the idea.)

-Rhythm-
e|----4-4---4-4--|
B|----6-6---6-6--|
G|----6-6---6-6--|
D|----6-6---6-6--|
A|--4------------|
E|--------4------|

-Lead-
e|------------------------------9-8----------8--8-8-----------------------|
B|--11p9-11p9-11p9-------9-11p9-----11-------9--------11-9----------9~----|
G|-----------------10h11---------------11~-----------------11-10-8-11~----|
D|------------------------------------------------------------------------|
A|------------------------------------------------------------------------|
E|------------------------------------------------------------------------|

e|------------------------------9-8---------8--8-8-----8-9----------------|
B|--11p9-11p9-11p9-------9-11p9-----11------9-------11-----9--------------|
G|-----------------10h11---------------11~-------------------10-----------|
D|--------------------------------------------------------------11~-------|
A|------------------------------------------------------------------------|
E|------------------------------------------------------------------------|


e|--/13*-11-10-11-11*---------9-/14*-11--------/16*--14-13-14*---8-11-14-11-8-9*-|
B|--------------------9-11-13-----------13-14*-----------------9-----------------|
G|-------------------------------------------------------------------------------|
D|-------------------------------------------------------------------------------|
A|-------------------------------------------------------------------------------|
E|-------------------------------------------------------------------------------|
Tap to rate this tab
 
# A B C D E F G H I J K L M N O P Q R S T U V W X Y Z