Song name
# A B C D E F G H I J K L M N O P Q R S T U V W X Y Z

Misc Unsigned Bands - The Seven Deadly Sins - Joe Get Your Head Out Of The Pussy Clouds tab

“Joe get your head out of the pussy clouds”

drop c

guitar 2 intro
|-t12-0h7h8-t12-0h5h7-t12-0h3h5-t12-0h2h3-|
|-----------------------------------------|
|-----------------------------------------|
|-----------------------------------------|
|-----------------------------------------|
|---------------x2------------------------|
continued
|-t14-0h7h8-t14-0h5h7-t14-0h3h5-t14-0h2h3-|
|-----------------------------------------|
|-----------------------------------------|
|-----------------------------------------|
|-----------------------------------------|
|-----------------------------------------|

guitar 1 intro harmony
|-t15-0h10h11-t15-0h8h10-t15-0h6h8-t15-0h5h6-|
|--------------------------------------------|
|--------------------------------------------|
|--------------------------------------------|
|--------------------------------------------|
|---------------x2---------------------------|
continued
|-t17-0h10h11-t17-0h8h10-t17-0h6h8-t17-0h5h6-|
|--------------------------------------------|
|--------------------------------------------|
|--------------------------------------------|
|--------------------------------------------|
|------------------x2------------------------|

guitar 1 continued intro verse guitar 2 keeps playing intro
|------------------------------------------------------------------------|
|------------------------------------------------------------------------|
|------------------------------------------------------------------------|
|-2~-------5~-------4~-------7~-------2~-------5~-------4~-------77--88--|x2
|-2~-------5~-------4~-------7~-------2~-------5~-------4~-------77--88--|
|-2~-------5~-------4~-------7`-------2~-------5~-------4~-------77--88--|

guitar 1 pre verse really fast
|----------------------------------------------------------|
|----------------------------------------------------------|
|----------------------------------------------------------|
|-----87-----75------------------87-----75-----------------|
|-----87-----75------------------87-----75----------7h8h10-|
|-000087-000075-000055332233-000087-000075-0000-7h8h10-----|

guitar 2 pre verse
|----------------------------------------------------------|
|----------------------------------------------------------|
|----------------------------------------------------------|
|-0-------------------------0------------------------------|
|-0-------------------------0------------------------------|
|-0-------------------------0------------------------------|

guitar 1 pre verse really fast continued
|--------------------------------------------------|
|--------------------------------------------------|
|--------------------------------------------------|
|-----87-----75------------------87-----75---------|
|-----87-----75------------------87-----75---------|
|-000087-000075-000055332233-000087-000075-0000-3*-|


guitar 2 pre verse continued
|--------------------------------------------------|
|--------------------------------------------------|
|--------------------------------------------------|
|-8~------------------------7~---------------------|
|-8~------------------------7~---------------------|
|-8~------------------------7~---------------------|

guitar 1 verse
|-----------------------------------------------------------|
|-----------------------------------------------------------|
|-----------------------------------------------------------|
|-0--------------------------0-----------------------7h8h10-|
|-0------------------8p7-----0-----------------7h8h10-------|
|-0-00-8p7-00-7p5-000---h8p7-0-00-8p7-0-7p5-000-------------|

guitar 2 verse
|-----------------------------------------------------------|
|-----------------------------------------------------------|
|-----------------------------------------------------------|
|-0--------------------------0------------------------------|
|-0--------------------------0------------------------------|
|-0--------------------------0------------------------------|

guitar 1 verse continued
|-------------------------------------------------------|
|-------------------------------------------------------|
|-------------------------------------------------------|
|-0------------------------------0----------------------|
|-0---------------------h8p7-----0----------------------|
|-0-00-00-8p7-00-7p5-000----h8p7-0-00-8p7-00-7p5-000-3*-|
guitar 2 verse
|------------------------------------------------------|
|------------------------------------------------------|
|------------------------------------------------------|
|-8------------------------------7---------------------|
|-8------------------------------7---------------------|
|-8------------------------------7---------------------|

verse pt 2 guitar 1
|-------------------------|
|-------------------------|
|-------------------------|
|-8-7-5-7-5-3-5-3-2-3-2-0-| x8
|-------------------------|
|-------------------------|
verse pt 2 guitar 2
|-------------------------------------|
|-------------------------------------|
|-------------------------------------|
|-0--------0--------8--------7--------|x2
|-0--------0--------8--------7--------|
|-0--------0--------8--------7--------|

guitar 1 pre chorus
|---------------------------------------------------------------|---|------|
|---------------------------------------------------------------|---|------|
|---------------------------------------------------------------|---|------|
|---3p0-0-2p0-0-3p0-0-5p0-0-3p0-2h3--3p0-0-2p0-0-3p0-0-5p0-0-3p0|---|-3-5-7|
|---------------------------------------------------------------|3*-|-3-5-7|
|-00-------------------------------00---------------------------|---|-3-5-7|
guitar 2 pre chorus
|---------------------------------------------------------------|---|------|
|---------------------------------------------------------------|---|------|
|---------------------------------------------------------------|---|------|
|-00-------------------------------00---------------------------|---|-3-5-7|
|-00-------------------------------00---------------------------|---|-3-5-7|
|-00-------------------------------00---------------------------|---|-3-5-7|

guitar 1 interlude/pre solo
|-t12-0h7h8-(x4)-t14-0h7h8-(x4)-|
|-------------------------------|
|-------------------------------|
|-------------------------------|
|-------------------------------|
|-------------------------------|
guitar 2 interlude/pre solo
|-------------------------------|
|-------------------------------|
|-------------------------------|
|-0------------0----------------|
|-0------------0----------------|
|-0------------0----------------|
guitar 1 solo 
|-t12-7h8-(x8)-t10-5h7-(x8)-t8-3h5-(x8)-t7-2h3-(x4)-t8-3h5-(x4)-|
|---------------------------------------------------------------|
|---------------------------------------------------------------|
|---------------------------------------------------------------|
|---------------------------------------------------------------|
|---------------------------------------------------------------|
guitar 2 solo rythem 
|---------------------------------------------------------------|
|---------------------------------------------------------------|
|---------------------------------------------------------------|
|-2------------0------------10----------9-----------10----------|
|-2------------0------------10----------9-----------10----------|
|-2------------0------------10----------9-----------10----------|

Guitar 1 solo continued
|-t12-7h8-(x4)-t14-7h8-(x4)-t15-7h8-(x4)-t17-7h8-(x4)-|
|-----------------------------------------------------|
|-----------------------------------------------------|
|-----------------------------------------------------|
|-----------------------------------------------------|
|-----------------------------------------------------|
Guitar 2 solo rythem continued 
|-----------------------------------------------------|
|-----------------------------------------------------|
|-----------------------------------------------------|
|-2------------4------------5------------7------------|
|-2------------4------------5------------7------------|
|-2------------4------------5------------7------------|



intro x1
intro harmony x1
intro verse x2
pre verse x1
verse pt 1x2
verse pt 2 x2
pre chorus x1
pre verse x1
verse pt 1 x2
verse pt 2 x2
pre chorus x1
pre verse x1
interlude x1
solo x1
pre verse x1



Visit our myspace and be our friends and keep rockin!
Tap to rate this tab
# A B C D E F G H I J K L M N O P Q R S T U V W X Y Z