Song name
# A B C D E F G H I J K L M N O P Q R S T U V W X Y Z

Misc Unsigned Bands - Konami Kukeiha Club - Cross A Fear tab

Help us improve GuitareTab! Take a short survey!
Cross A Fear (Castlevania Rondo of Blood OST)
Album: Dracula Battle Perfect
Performed by: Konami Kukeiha Club
Original Composition: Akihiro Honda
Tabs: sergio1o3
Guitar Cover: http://www.youtube.com/watch?v=Afgx3KtGCmQ&fmt=18

Symbols:
h  -  hammer on
p  -  pull off
b  -  bend string up
      (5b7 = bend at fret 5 until you reach the same tune as fret 7)
r  -  release bend
      (10r8 = from bend position at fret 8 with the same tune as fret 10, release the bend)
/  -  slide up
\  -  slide down
() -  artificial harmonic
<> -  natural harmonic


Intro
|---------|  |-------------|     |-------|------|-------|
|---------|  |-------------|     |-------|------|-------|
|---------|  |-------------|     |-12-10-|-10-8-|-10-12-|
|-------5-|  |-----------5-| x11 |-12-10-|-10-8-|-10-12-|
|---------|  |-------------|     |-10-8--|-8--6-|-8--10-|
|-3-3-3---|  |-3-3-3-3-3---|     |-------|------|-------|


Part 1
|-------------------|-----------------------------------|
|-------------------|-3-3-3-3---3-5-5h6-5h6p5p3-3h5-3---|
|-5b7-7-7-7r5-5p3---|---------------------------------5-|
|-----------------5-|---------5-------------------------|
|-------------------|-----------------------------------|
|-------------------|-----------------------------------|

|-----------------------------------------|-----------------------|
|-3-3-3-3---3-5-5h6-6/8-6h8p6p5-3---------|-----------------------|
|---------------------------------5-5-2---|-----------------------|
|---------5-----------------------------3-|-5-7-8-7-8p7p5-3-3/5-5-|
|-----------------------------------------|-----------------------|
|-----------------------------------------|-----------------------|

|-----------------------------------|-----------------------------------------|
|-3-3-3-3---3-5-5h6-5h6p5p3-3h5-3---|-3-3-3-3---3-5-5h6-6/8-6h8p6p5-3---------|
|---------------------------------5-|---------------------------------5-5-2---|
|---------5-------------------------|---------5-----------------------------3-|
|-----------------------------------|-----------------------------------------|
|-----------------------------------|-----------------------------------------|

|-----------------------|
|-----------------------|
|-----------------------|
|-5-7-8-7-8p7p5-3-3/5-5-|
|-----------------------|
|-----------------------|


Bridge
|---------------|-------------|
|---------------|-------------|
|-----7-6-5-----|-----7-6-5---|
|-5h8-------8-5-|-5h8-------8-|
|---------------|-------------|
|---------------|-------------|


Solo 1
|-3h6p3---3-----------------------------------|-----------------------|-------------|
|-------6---6-3h6p3---3-----------------------|-----------------------|-------10-11-|
|-------------------5---5-3h5p3---5-5b7-5p3---|-3-2-3-5-3-(5b7)-5p3---|-10-12-------|
|-------------------------------5-----------5-|---------------------5-|-------------|
|---------------------------------------------|-----------------------|-------------|
|---------------------------------------------|-----------------------|-------------|

|-------------|-------------13----------------|
|-10-11-11/13-|-11-13-13b15----15r13-11-13/15-|
|-------------|-------------------------------|
|-------------|-------------------------------|
|-------------|-------------------------------|
|-------------|-------------------------------|

|--------------------------------------------------------|
|-/15-15-16-15h16p15p13----------------------------------|
|-----------------------15-14-12-15-14-12----------------|
|-----------------------------------------15p12-15-15/17-|
|--------------------------------------------------------|
|--------------------------------------------------------|

|--------------18b20-18-17-18-|-17h18p17p15----------------------------|
|-----------------------------|-------------18b20-18-15----------------|
|-----------17----------------|-------------------------17b18r17-15-17-|
|-/17-19-20-------------------|----------------------------------------|
|-----------------------------|----------------------------------------|
|-----------------------------|----------------------------------------|

|-------------------15-18p15----15-18b20-20b22-20b22-20b22-|
|----------15-16-18----------18----------------------------|
|-14-15-17-------------------------------------------------|
|----------------------------------------------------------|
|----------------------------------------------------------|
|----------------------------------------------------------|


Part 2
|-----------------------------------|-----------------------------------------|
|-3-3-3-3---3-5-5h6-5h6p5p3-3h5-3---|-3-3-3-3---3-5-5h6-6/8-6h8p6p5-3---------|
|---------------------------------5-|---------------------------------5-5-2---|
|---------5-------------------------|---------5-----------------------------3-|
|-----------------------------------|-----------------------------------------|
|-----------------------------------|-----------------------------------------|

|---------------------------------|-----------------------------------|
|---------------------------------|-3-3-3-3---3-5-5h6-5h6p5p3-3h5-3---|
|---------------------------------|---------------------------------5-|
|-5-7-8-8/10-8h10p8p7-5-----------|---------5-------------------------|
|-----------------------8-8/10-10-|-----------------------------------|
|---------------------------------|-----------------------------------|

|-----------------------------------------|
|-3-3-3-3---3-5-5h6-6/8-6h8p6p5-3---------|
|---------------------------------5-5-2---|
|---------5-----------------------------3-|
|-----------------------------------------|
|-----------------------------------------|


Do Bridge then continue to Solo 2


Solo 2
|-----------------8---------11-10-8--------------------------------------|
|-8p6---8-11-10-8---11p10p8---------11-10-8-11-10-8----------------------|
|-----7---------------------------------------------10P7-----------------|
|--------------------------------------------------------11p8----10/12-8-|
|-------------------------------------------------------------10---------|
|------------------------------------------------------------------------|

|-------------------------------------|-------18-20-18-20b22-20b22-|
|-------------------------------------|-20-22----------------------|
|-----<5>-----------------3-5p3---3---|----------------------------|
|-5-5-----3h5-0-5p3---3-5-------5---5-|----------------------------|
|-------------------5-----------------|----------------------------|
|-------------------------------------|----------------------------|

|-20b22r20-18-------------|-------18-17-----------------------|
|-------------22b23r22-20-|-18b20-------18--------------------|
|-------------------------|----------------19-/17-15-14-15----|
|-------------------------|--------------------------------15-|
|-------------------------|-----------------------------------|
|-------------------------|-----------------------------------|

|--------------------------------------15-------15b17-15b17-15b17-|
|-----------------------------------------------------------------|
|-----12-15-14h15p14p12----12-14-15/17----17/15-------------------|
|-/15-------------------15----------------------------------------|
|-----------------------------------------------------------------|
|-----------------------------------------------------------------|

|-15b17-15b17-15b17-15p13----13----------------------|
|-------------------------15----13-15----13----------|
|-------------------------------------14----15-14-12-|
|----------------------------------------------------|
|----------------------------------------------------|
|----------------------------------------------------|


Solo 3
|-------13-------10-------12----13----12-------------------------------------------|
|----------------------------------------15-13----------13-15-13h15p13p12\10-13p10-|
|-12/14----14\12----12/14----14----14----------14-13h14----------------------------|
|----------------------------------------------------------------------------------|
|----------------------------------------------------------------------------------|
|----------------------------------------------------------------------------------|

|-------------------------|-----------------------------------|
|----10-------------------|-----------------------------------|
|-13----13-12-10----12-10-|-----------------------------------|
|----------------12-12-10-|-12-7-10-7-------------------------|
|-------------------10-8--|-----------10-11-10-8-10-8---------|
|-------------------------|---------------------------10-8-10-|

|------10-12-13p12p10-------------------------------------------|
|-8/10----------------10----------------------------------------|
|------------------------12-10\9--------------------------------|
|--------------------------------12p10-12p10--------------------|
|--------------------------------------------12-11-10\8---------|
|-------------------------------------------------------10p8h10-|

|----------------------|---------------------------|
|----------------------|---------------------------|
|----------------------|---------------------------|
|----------------------|-----------------5---------|
|------8\7-------------|---------------5---8-3-3/5-|
|-10p8-----10p8h10-5-6-|-6p5h6-6p5h6-8-------------|   hold bend and hit fret 16
                                                       V
|-------------------------------------------13-15-15b17*16-15b17r15-13h15p13\12-13p12----|
|-------------------------------------13-15-------------------------------------------15-|
|-------------------10-12-------12-14----------------------------------------------------|
|-------------10-12-------12-15----------------------------------------------------------|
|-------10-12----------------------------------------------------------------------------|
|-10-13----------------------------------------------------------------------------------|

|-17h13----17\15p12----15p13-------13/15-------15\13-------13\12----------------|
|-------15----------13-------15----------17----------15----------15-13----13/15-|
|-------------------------------14----------17----------14-------------14-------|
|-------------------------------------------------------------------------------|
|-------------------------------------------------------------------------------|
|-------------------------------------------------------------------------------|

|-------------------|     |-------------------20-22p20----------------|
|----------16-18-20-|     |----------18-20-22----------22p20\18-------|
|-15-17-19----------| 4x  |-17-19-21----------------------------19\17-|
|-------------------|     |-------------------------------------------|
|-------------------|     |-------------------------------------------|
|-------------------|     |-------------------------------------------|


Solo 4 (Tapping Section 1 - do all notes in Taps)
|---------13------------13------------|---------12------------12------------|
|------------13------------13---------|------------13------------13---------|
|-10------------10------------10------|-------------------------------------|
|----10------------10------------10---|-10------------10------------10------|
|-------8-------------8-------------8-|----10------------10------------10---|
|-------------------------------------|-------8-------------8-------------8-|

|-------11----------11----------|----------15-------17-------15-------15-|
|----------11----------11-------|-------------15-------15-------15-------|
|-8-----------8-----------8-----|-12-------------12-------12-------12----|
|---8-----------8-----------8---|----12----------------------------------|
|-----6-----------6-----------6-|-------10-------------------------------|
|-------------------------------|----------------------------------------|

|---------13------------13------------|---------12------------12------------|
|------------13------------13---------|------------13------------13---------|
|-10------------10------------10------|-------------------------------------|
|----10------------10------------10---|-10------------10------------10------|
|-------8-------------8-------------8-|----10------------10------------10---|
|-------------------------------------|-------8-------------8-------------8-|

|---------13----|-------11---|----------15----------------|
|------------13-|---------11-|-------------15-------------|
|-10------------|-8----------|-12-------------12-------12-|
|----10---------|---8--------|----12-------------12-------|
|-------8-------|-----6------|-------10-------------10----|
|---------------|------------|----------------------------|


Part 3 (Palm Mute Section - do all notes in Palm Mutes)
|-----------------------------------------------------------------|
|-3-3-3-3-3-3-3-3---------3-5-6-6-6-6-5-5-5-5-3-3-3-3-------------|
|-----------------------------------------------------5-5-5-5-5-5-|
|-----------------5-5-5-5-----------------------------------------|
|-----------------------------------------------------------------|
|-----------------------------------------------------------------|

|-----------------------------------------------------------------------------------------|
|-3-3-3-3-3-3-3-3---------3-5-6-6-6-6-5-5-5-5-3-3-3-3-------------------------------------|
|-----------------------------------------------------5-5-5-5-5-5-5-5-2-2-----------------|
|-----------------5-5-5-5-------------------------------------------------3-3-3-3-3-3-3-3-|
|-----------------------------------------------------------------------------------------|
|-----------------------------------------------------------------------------------------|

|-------------------------------------|
|-------------------------------------|
|-------------------------------------|
|-5-7-8-8-8-8-7-7-7-7-5-5-5-5-3-3-3-3-|
|-------------------------------------|
|-------------------------------------|

            |---------------------------------------------|
            |---------------------------------------------|
 release PM |------------------------------------------12-|
            |-3/5-5-5-5/7-7-7-7/8-8-8-8/10-10-10-10/12----|
            |---------------------------------------------|
            |---------------------------------------------|


Do Part 2 once (1x), do Bridge and continue to Solo 5


Solo 5
|-13----------------|-------------------------------------------------------|
|-16b18-13p11-13/15-|----------------------------13-16-18-13-16-18-13-16-18-|
|-------------------|-12-15-17-12-15-17-12-15-17----------------------------|
|-------------------|-------------------------------------------------------|
|-------------------|-------------------------------------------------------|
|-------------------|-------------------------------------------------------|

|-13-16-18p16p13-18p16p13-18/20\-|------------------------------------|
|--------------------------------|--------13-14-15p14p13--------------|
|--------------------------------|-/12-15----------------15p12----15\-|
|--------------------------------|-----------------------------15-----|
|--------------------------------|------------------------------------|
|--------------------------------|------------------------------------|

|-13b15r13-13-10-11p10----------|----------------------13-------------------|
|----------------------11p10----|-10-11-13-10-11-13b15----13b15r13-13p11----|
|----------------------------12-|----------------------------------------12-|
|-------------------------------|-------------------------------------------|
|-------------------------------|-------------------------------------------|
|-------------------------------|-------------------------------------------|

|-18-17-------20-18----------------------------18-20p18-20b22-20b22-20b22-|
|-------20-20-------22-23r22-20-20/22-22-22-22----------------------------|
|-------------------------------------------------------------------------|
|-------------------------------------------------------------------------|
|-------------------------------------------------------------------------|
|-------------------------------------------------------------------------|

|-20p18-17h18p17\15-17-17-17h18p17p15-17-|
|----------------------------------------|
|----------------------------------------|
|----------------------------------------|
|----------------------------------------|
|----------------------------------------|

|----15-17-18-20-17-20b22-20b22-20b22r20-18-20b22-20b22-20b22-20b22-20b22-|
|-18----------------------------------------------------------------------|
|-------------------------------------------------------------------------|
|-------------------------------------------------------------------------|
|-------------------------------------------------------------------------|
|-------------------------------------------------------------------------|

|-20b22-20b22-20b22-20p18-20-18-17-------|
|----------------------------------20-20-|
|----------------------------------------|
|----------------------------------------|
|----------------------------------------|
|----------------------------------------|


Solo 6 (Tapping Section 2 - do all notes in Taps)
|---------13------------13------------|---------12------------12------------|
|------------13------------13---------|------------13------------13---------|
|-10------------10------------10------|-------------------------------------|
|----10------------10------------10---|-10------------10------------10------|
|-------8-------------8-------------8-|----10------------10------------10---|
|-------------------------------------|-------8-------------8-------------8-|

|-------11----------11----------|----------15-------17-------15-------15-|
|----------11----------11-------|-------------15-------15-------15-------|
|-8-----------8-----------8-----|-12-------------12-------12-------12----|
|---8-----------8-----------8---|----12----------------------------------|
|-----6-----------6-----------6-|-------10-------------------------------|
|-------------------------------|----------------------------------------|

|---------13------------13------------|---------12------------12------------|
|------------13------------13---------|------------13------------13---------|
|-10------------10------------10------|-------------------------------------|
|----10------------10------------10---|-10------------10------------10------|
|-------8-------------8-------------8-|----10------------10------------10---|
|-------------------------------------|-------8-------------8-------------8-|

|-------11----------11----------|----------15-------17-------15-------15-|
|----------11----------11-------|-------------15-------15-------15-------|
|-8-----------8-----------8-----|-12-------------12-------12-------12----|
|---8-----------8-----------8---|----12----------------------------------|
|-----6-----------6-----------6-|-------10-------------------------------|
|-------------------------------|----------------------------------------|

|---------13------------13------------|---------12------------12------------|
|------------13------------13---------|------------13------------13---------|
|-10------------10------------10------|-------------------------------------|
|----10------------10------------10---|-10------------10------------10------|
|-------8-------------8-------------8-|----10------------10------------10---|
|-------------------------------------|-------8-------------8-------------8-|

|---------13----|---------12----|  |---------13------------13------------|
|------------13-|------------13-|  |------------13------------13---------|
|-10------------|---------------|  |-10------------10------------10------| 2x
|----10---------|-10------------|  |----10------------10------------10---|
|-------8-------|----10---------|  |-------8-------------8-------------8-|
|---------------|-------8-------|  |-------------------------------------|

|-------|
|-------|
|-10-12-|
|-10-12-|
|-------|
|-------|
Related for Konami Kukeiha Club - Cross A Fear tab