Song name
# A B C D E F G H I J K L M N O P Q R S T U V W X Y Z

Misc Unsigned Bands - Show Me The Skyline - I Never Knew I Had It In Me tab

-------------------------------------------------------------------------------
			     I Never Knew I Had It In Me - Show Me The Skyline
-------------------------------------------------------------------------------
Tabbed by: ebayhi
Email: need535@comcast.net

Tuning: standard

Intro:
E|--------------------------------------------------------|
e|--------------------------------------------------------|
B|--------------------------------------------------------|
G|--5-----------------------------------------------------|
D|--5-(x6)--3-------7-------3-------5---------------------|
A|--3-------3-(x2)--7-(x4)--3-(x2)--5-(x2)----------------|
E|----------1-------5-------1-------3---------------------|

Verse One:
E|--------------------------------------------------------|
e|--------------------------------------------------------|
B|--------------------------------------------------------|
G|--5-----------------------------------------------------|     (x2)
D|--5-(x6)--3-------7-------3-------5---------------------|
A|--3-------3-(x2)--7-(x4)--3-(x2)--5-(x2)----------------|
E|----------1-------5-------1-------3---------------------|


E|--------------------------------------------------------|
e|--------------------------------------------------------|
B|--------------------------------------------------------|
G|--------------------------------------------------------|     (x2)
D|--3-------7-------5-------------------------------------|
A|--3-(x4)--7-(x2)--5-(x2)--------------------------------|
E|--1-------5-------3-------------------------------------|

Chorus:
E|--------------------------------------------------------|
e|--------------------------------------------------------|
B|--------------------------------------------------------|
G|--5-----------------------------------------------------|     (x2)
D|--5-(x8)--5-------7-------3-----------------------------|
A|--3-------5-(x8)--7-(x8)--3-(x8)------------------------|
E|----------3-------5-------1-----------------------------|

E|-----------|
e|-----------|
B|-----------|
G|--5--------|
D|--5-(x8)---|
A|--3--------|
E|-----------|

Verse Two:
E|--------------------------------------------------------|
e|--------------------------------------------------------|
B|--------------------------------------------------------|
G|--5-----------------------------------------------------|     (x2)
D|--5-(x6)--3-------7-------3-------5---------------------|
A|--3-------3-(x2)--7-(x4)--3-(x2)--5-(x2)----------------|
E|----------1-------5-------1-------3---------------------|

E|--------------------------------------------------------|
e|--------------------------------------------------------|
B|--------------------------------------------------------|
G|--------------------------------------------------------|     (x2)
D|--3-------7-------5-------------------------------------|
A|--3-(x4)--7-(x2)--5-(x2)--------------------------------|
E|--1-------5-------3-------------------------------------|

Chorus:
E|--------------------------------------------------------|
e|--------------------------------------------------------|
B|--------------------------------------------------------|
G|--5-----------------------------------------------------|     (x2)
D|--5-(x8)--5-------7-------3-----------------------------|
A|--3-------5-(x8)--7-(x8)--3-(x8)------------------------|
E|----------3-------5-------1-----------------------------|

Bridge:
E|--------------------------------------------------------|
e|--------------------------------------------------------|
B|--------------------------------------------------------|
G|--------------------------------------------------------|     (x4)
D|--7--------5-------10-------3---------------------------|
A|--7-(x12)--3-(x2)--10-(x8)--3-(x8)----------------------|
E|--5--------3-------8--------1---------------------------|

Chorus:
E|--------------------------------------------------------|
e|--------------------------------------------------------|
B|--------------------------------------------------------|
G|--5-----------------------------------------------------|     (x5)
D|--5-(x8)--5-------7-------3-----------------------------|
A|--3-------5-(x8)--7-(x8)--3-(x8)------------------------|
E|----------3-------5-------1-----------------------------|

Outro:
E|--------------------------------------------------------|
e|--------------------------------------------------------|
B|--------------------------------------------------------|
G|--5-------------------------------5---------------------|
D|--5-(x8)--5-------7-------3-------5---------------------|
A|--3-------5-(x8)--7-(x8)--3-(x8)--3---------------------|
E|----------3-------5-------1-----------------------------|


************************************

| /   slide up
| \   slide down
| h   hammer-on
| p   pull-off
| ~   vibrato
| +   harmonic
| x   Mute note
| b   Bend
| pb  Pre-bend
| br  Bend release
| pbr Pre-bend release
| brb Bend release bend

************************************
Tap to rate this tab
 
# A B C D E F G H I J K L M N O P Q R S T U V W X Y Z