Song name
# A B C D E F G H I J K L M N O P Q R S T U V W X Y Z

Misc Unsigned Bands - Ink And Roses - Wasnt It Better When We All Knew What Was Right In Front Of Us tab

Help us improve GuitareTab! Take a short survey!
E-----------------------------------------------------------------|
B-----------------------------------------------------------------|
G-----------------------------------------------------------------|
D-7-7-7-7-7-7-7-7-3-3-3-3-3-3-3-3-5-5-5-5-5-5-5-5-5-5-5-5-5-5-5-5-|
A-7-7-7-7-7-7-7-7-3-3-3-3-3-3-3-3-5-5-5-5-5-5-5-5-5-5-5-5-5-5-5-5-|
E-5-5-5-5-5-5-5-5-1-1-1-1-1-1-1-1-0-0-0-0-0-0-0-0-0-0-0-0-0-0-0-0-| x6

E--------------------------------------------------|
B--------------------------------------------------|
G--------------------------------------------------|
D-7-7-7-7-7-7-3-3-3-3-3-3-5-5-5-5-5-5-3-3-3-3-3-3--|
A-7-7-7-7-7-7-3-3-3-3-3-3-3-3-3-3-3-3-3-3-3-3-3-3--|
E-5-5-5-5-5-5-1-1-1-1-1-1-3-3-3-3-3-3-1-1-1-1-1-1--| x2
   "some thin burns..."

E-----------------------------------------------------------------|
B-----------------------------------------------------------------|
G-----------------------------------------------------------------|
D-7-7-7-7-7-7-7-7-3-3-3-3-3-3-3-3-5-5-5-5-5-5-5-5-5-5-5-5-5-5-5-5-|
A-7-7-7-7-7-7-7-7-3-3-3-3-3-3-3-3-5-5-5-5-5-5-5-5-5-5-5-5-5-5-5-5-|
E-5-5-5-5-5-5-5-5-1-1-1-1-1-1-1-1-0-0-0-0-0-0-0-0-0-0-0-0-0-0-0-0-|  x1
Related for Ink And Roses - Wasnt It Better When We All Knew What Was Right In Front Of Us tab