Song name
# A B C D E F G H I J K L M N O P Q R S T U V W X Y Z

Misc - Halo Theme tab

*=harmonic
X=open palm mute
/=slide
p=pull off
h=hammer on



e|------------------------------------------------------------------|
B|------------------------------------------------------------------|
G|----9-----9h11/12/14--11h12\9h11\7h9------------------------------|
D|------------------------------------------------------------------|
A|------------------------------------------------------------------|
E|------------------------------------------------------------------|

            two times
e|---------|--------------------------------------------------------|
B|---intro-|--------------------------------------------------------|
G|----5*---|-------9/-------11-------12------14-----14\12\10--------|
D|---------|-------7/--------9-------10------12-----12\10\9---------|
A|---------|-X-X-X---X-X-X-X---X-X-X----X-X-X-----------------------|
E|---------|--------------------------------------------------------|



e|--12----14----15----17---------------------------------------------------|
B|--15b~--17b~--18b~--20b~--22-20-19-17-15-17--17p15\12-------------15-17~-|
G|------------------------------------------------------b14-14p12----------|
D|----------------------------------------------------------------14-------|
A|-------------------------------------------------------------------------|
E|-------------------------------------------------------------------------|


e|-------------------------------------------9----------------------|
B|--12---12-14-15---12-15-14-12\10----10--12---12-10----------------|
G|---------------------------------9--------------------9-----------|
D-------------------------------------------------------------------|
A|------------------------------------------------------------------|
E|------------------------------------------------------------------|


e|--------------------12-----------------12-------------------------|
B|--12---12-14-15-------15-14-15-14-12-----15-14-15-14-12---------|
G|------------------------------------------------------------------|
D|------------------------------------------------------------------|
A|------------------------------------------------------------------|
E|------------------------------------------------------------------|



e|--14------17--17-17-17--14------17---12-14-15/17-17~--------------|
B|----15--------------------15--------------------------------------|
G|------16--------------------16------------------------------------|
D-------------------------------------------------------------------|
A|------------------------------------------------------------------|
E|------------------------------------------------------------------|


e|-------------------------------------10---------------------------|
B|--12-12--14-15--12--15-14----10--12------12--9--|14--15--17|--22~-|
G|---------------------------9--------------------|slow, like  |----|
D|------------------------------------------------|stepping a ladder|
A|------------------------------------------------------------------|
E|------------------------------------------------------------------|


e|--21-19-17-15---15-14-15-17-15------------------------------------|
B|------------------------------------------------------------------|
G|------------------------------------------------------------------|
D|------------------------------------------------------------------|
A|------------------------------------------------------------------|
E|------------------------------------------------------------------|


e|----15---15---15---15---15---15---15---15---15-17-18-20-17--------|
B|--18--------18-------18-------18----------------------------------|
G|------17--------17--------17--------17----18----------------------|
D|------------------------------------------------------------------|
A|------------------------------------------------------------------|
E|------------------------------------------------------------------|


e|----17---17---17---17---17---17---17---17---17-15-14-15-14--------|
B|--20--------20-------20---------20--------------------------17----|
G|------19--------19--------19--------19----19----------------------|
D|------------------------------------------------------------------|
A|------------------------------------------------------------------|
E|------------------------------------------------------------------|

thats all i have for now.
Tap to rate this tab
 
# A B C D E F G H I J K L M N O P Q R S T U V W X Y Z