Song name
# A B C D E F G H I J K L M N O P Q R S T U V W X Y Z

Modest Mouse - Satellite Skin chords

Highlighted       Show chord diagrams
Right, I'm taking the solo bit from the other tab up here cos its correct so credit to 
for that. Lyrics are 100% correct, iv seen em wrong on various lyric sites but these are 
ones on the booklet.

Normal tuning


Intro:

E  B   A   E

E                             B
If you break these moth wing feelings
                      A
Powdery dust on your fingers
                                 E
Well no we're not praying we're kneeling.
                               B
Hard enough just to say you believe them
                                       A
Well how the heck'dya think you could beat them
                                         E
At the same time that you're trying to be them
                                       B
Hard enough just to say you don't need it when they
                                 A
Serve it up well you will still eat it
                             E
Well satellite and satellite skin


E                                    B
Just to knock just to say you don't visit
                                   A
Well, when everybody's willing to listen
                            E
Oh satellite, satellite skin
                                  B
You can say what you want you're forgiven
                            A
Well happy fucking congratulations
                    E
Everyone, everyone wins
                              B
Just like being my own solar system
                                     A
Doing good things but then totally eclipse them

Oh what's the use, oh what the hell

solo

e|------------------------------------------------------|
B|------------------------------------------------------|
G|--7p6h7p6---------------------------------------------|
D|------------9--666-666-7-6-7--------------------------|
A|------------------------------------------------------|
E|------------------------------------------------------|


e|---------------------------------------------------|
B|---------------------------------------------------|
G|--7p6h7p6------------------------------------------|
D|-----------9-666-6-666-7-6--4-4-4-4-4-4-4----------|
A|---------------------------------------------------|
E|---------------------------------------------------|

e|---------------------------------------------------|
B|---------------------------------------------------|
G|---------------------------------------------------|
D|--9-6----------------------------------------------|
A|------7-7-7-7-7-7-7-7-7-7-7-7-7-7-7-7--------------|
E|---------------------------------------------------|

E                             B
If you break these moth wing feelings
                        A
Butterfly knives in the ceiling
                           E
Well everyone, everyone's waiting
                            B
Detachments get praised and completed
                                  A
You can say what you want and not mean it
                               E
When no one really seems to be waiting
                               B
If you sweep up this mess I've created
                          A
Nothing's left to show I existed
                           E
Oh satellite, satellite skin

Bridge:

(no chord)         A
Asking for a question
B       C#     A                      B
Was it easier said than was actually done?
        C#          A
Do you even believe that
B        C#         A
Do you even believe that there's a race to be won?


solo

e|------------------------------------------------------|
B|------------------------------------------------------|
G|--7p6h7p6---------------------------------------------|
D|------------9--666-666-7-6-7--------------------------|
A|------------------------------------------------------|
E|------------------------------------------------------|


e|---------------------------------------------------|
B|---------------------------------------------------|
G|--7p6h7p6------------------------------------------|
D|-----------9-666-6-666-7-6--4-4-4-4-4-4-4----------|
A|---------------------------------------------------|
E|---------------------------------------------------|

e|---------------------------------------------------|
B|---------------------------------------------------|
G|---------------------------------------------------|
D|--9-6----------------------------------------------|
A|------7-7-7-7-7-7-7-7-7-7-7-7-7-7-7-7--------------|
E|---------------------------------------------------|

E                             B
If you break these moth wing feelings
                     A
I have seen it all become satellite skin
                    E
Orbiting some eyes
E                    B
A knack to not thats not their opinions
                A                             E
Get stacked in all those usual avoided spots
E                             B
Just to tell you how I could not have seen
                        A
Through to the gist of those unhappy
                 E
Happy accidents


Enjoy! Dave K
Tap to rate this tab
 
# A B C D E F G H I J K L M N O P Q R S T U V W X Y Z