Song name
# A B C D E F G H I J K L M N O P Q R S T U V W X Y Z

Mogwai - Mogwai Fear Satan tab

e-----------------------------------|
B-----------------------------------|
G-13--14---16--16-------------------|
D--x---x----x---x-------------------|
A-11--12---14--14-------------------|
E--0---0----0---0-------------------|

Tremolo part
e----------------------------------|
B----------------------------------|
G--13----14----16---18-16----------|
D----------------------------------|
A----------------------------------|
E----------------------------------|

(This is basically the whole song with these two parts repeated over and over with 
degrees of loudness, distortion, and other effects)
Tap to rate this tab
# A B C D E F G H I J K L M N O P Q R S T U V W X Y Z