Song name
# A B C D E F G H I J K L M N O P Q R S T U V W X Y Z

Mogwai - Ratts Of The Capital tab

Help us improve GuitareTab! Take a short survey!
-------------------------------------------------------------------------------
			    Ratts of the Capital - Mogwai
-------------------------------------------------------------------------------
Tabbed by: Wade Abbott
Email: wadeab@hotmail.com

Tuning: Regular

This tab is only for one guitar. I put a general idea of what the other guitar plays 
at the end, but i don't have time to figure it all out.

The song is in 6/8 Time signature. (I count the whole song as 1-2-3-4-1-2)
Although they stray from it once in awhile.

Clean Guitar
Intro 0:00-0:06
e|--0-0-0-0-0-0-0-0-0-0-0-0-0------------------------------------------------|
B|-5-5-5-5-5---5-5-5-5-5-5---------------------------------------------------|
G|-----------5-------------5-------------------------------------------------|
D|---------------------------------------------------------------------------|
A|---------------------------------------------------------------------------|
E|---------------------------------------------------------------------------|
Part A 0:06-0:19
e|--0-0-0-0-0-0-0-0-0-0-0-0-0-0-0-0-0-0-0-0-0-0-0-0--------------------------|
B|-5-5-5-6-5-3-1-1-1-3-1-----------------------------------------------------|
G|-----------------------0-2-2-2-2-2-2-1-1-1-4-1-1---------------------------|
D|---------------------------------------------------------------------------|
A|---------------------------------------------------------------------------|
E|---------------------------------------------------------------------------|
Part B x4 0:20-1:11 
e|--0-0-0-0-0-0-0-0-0-0-0-0-0-0-0-0-0-0-0-0-0-0-0-0--------------------------|
B|-5-5-5-6-5-3-1-1-1-3-1-----------------------------------------------------|
G|-----------------------0-2-2-2-2-2-2-1-1-1-1-1-1---------------------------|
D|---------------------------------------------------------------------------|
A|---------------------------------------------------------------------------|
E|---------------------------------------------------------------------------|
Part C 1:12-1:21
e|--0-0-0-0-0-0-0-0-0-0-0-0-0-0-0-0-0-0--------------------------------------|
B|-5-5-5-6-5-3-1-1-1-3-1-----------------------------------------------------|
G|-----------------------0-2-2-2-2-2-2---------------------------------------|
D|---------------------------------------------------------------------------|
A|---------------------------------------------------------------------------|
E|---------------------------------------------------------------------------|
Part D 1:22-1:31
e|---------------------------------------------------------------------------|
B|---------------------------------------------------------------------------|
G|7-7-7-7-7-7--7-7-7-7-7-7--5-5-5-5-5-5--5-5-5-5-5-5-------------------------|
D|x-x-x-x-x-x--x-x-x-x-x-x--x-x-x-x-x-x--x-x-x-x-x-x-------------------------|
A|5-5-5-5-5-5--5-5-5-5-5-5--3-3-3-3-3-3--3-3-3-3-3-3-------------------------|
E|---------------------------------------------------------------------------|
Part D continued
e|---------------------------------------------------------------------------|
B|---------------------------------------------------------------------------|
G|5-5-5-5-5-5--4-4-4-4-4-4---------------------------------------------------|
D|x-x-x-x-x-x--x-x-x-x-x-x---------------------------------------------------|
A|3-3-3-3-3-3--2-2-2-2-2-2---------------------------------------------------|
E|---------------------------------------------------------------------------|
Part E 1:32-1:44
e|---------------------------------------------------------------------------|
B|---------------------------------------------------------------------------|
G|7-7-7-7-7-7--7-7-7-7-7-7--7-7-7-7-7-7--10-9--7--5-5-5-5-5-5--5-5-5-5-5-5---|
D|x-x-x-x-x-x--x-x-x-x-x-x--x-x-x-x-x-x--x--x--x--x-x-x-x-x-x--x-x-x-x-x-x---|
A|5-5-5-5-5-5--5-5-5-5-5-5--5-5-5-5-5-5--8--7--5--3-3-3-3-3-3--3-3-3-3-3-3---|
E|---------------------------------------------------------------------------|
Part E continued
e|---------------------------------------------------------------------------|
B|---------------------------------------------------------------------------|
G|5-5-5-5-5-5--4-4-4-4-4-4---------------------------------------------------|
D|x-x-x-x-x-x--x-x-x-x-x-x---------------------------------------------------|
A|3-3-3-3-3-3--2-2-2-2-2-2---------------------------------------------------|
E|---------------------------------------------------------------------------|
Part F 1:45-2:04
e|---------------------------------------------------------------------------|
B|------------------------------------2-2-2-2-2-2--2-2-2-2-2-2---------------|
G|-7-7-7-7-7-7--7-7-7-7-7-7--------------------------------------------------|
D|-x-x-x-x-x-x--x-x-x-x-x-x----pause-----------------------------------------|
A|-5-5-5-5-5-5--5-5-5-5-5-5--3-----------------------------------------------|
E|---------------------------------------------------------------------------|
Part F Continued
e|----------------------------------------------------------------------------|
B|4-4-4-4-4-4--4-4-4-4-4-4--5-5-5-5-5-5--5-5-5-5-5-5--4-4-4-4-4-4--4-4-4-4-4-4|
G|----------------------------------------------------------------------------|
D|----------------------------------------------------------------------------|
A|----------------------------------------------------------------------------|
E|----------------------------------------------------------------------------|
Part B x2 2:05-2:29
e|--0-0-0-0-0-0-0-0-0-0-0-0-0-0-0-0-0-0-0-0-0-0-0-0--------------------------|
B|-5-5-5-6-5-3-1-1-1-3-1-----------------------------------------------------|
G|-----------------------0-2-2-2-2-2-2-1-1-1-1-1-1---------------------------|
D|---------------------------------------------------------------------------|
A|---------------------------------------------------------------------------|
E|---------------------------------------------------------------------------|
Part C 2:30-2:39
e|--0-0-0-0-0-0-0-0-0-0-0-0-0-0-0-0-0-0--------------------------------------|
B|-5-5-5-6-5-3-1-1-1-3-1-----------------------------------------------------|
G|-----------------------0-2-2-2-2-2-2---------------------------------------|
D|---------------------------------------------------------------------------|
A|---------------------------------------------------------------------------|
E|---------------------------------------------------------------------------|
Part D 2:40-2:49
e|---------------------------------------------------------------------------|
B|---------------------------------------------------------------------------|
G|7-7-7-7-7-7--7-7-7-7-7-7--5-5-5-5-5-5--5-5-5-5-5-5-------------------------|
D|x-x-x-x-x-x--x-x-x-x-x-x--x-x-x-x-x-x--x-x-x-x-x-x-------------------------|
A|5-5-5-5-5-5--5-5-5-5-5-5--3-3-3-3-3-3--3-3-3-3-3-3-------------------------|
E|---------------------------------------------------------------------------|
Part D continued
e|---------------------------------------------------------------------------|
B|---------------------------------------------------------------------------|
G|5-5-5-5-5-5--4-4-4-4-4-4---------------------------------------------------|
D|x-x-x-x-x-x--x-x-x-x-x-x---------------------------------------------------|
A|3-3-3-3-3-3--2-2-2-2-2-2---------------------------------------------------|
E|---------------------------------------------------------------------------|
Part E x3 2:50-3:27
e|---------------------------------------------------------------------------|
B|---------------------------------------------------------------------------|
G|7-7-7-7-7-7--7-7-7-7-7-7--7-7-7-7-7-7--10-9--7--5-5-5-5-5-5--5-5-5-5-5-5---|
D|x-x-x-x-x-x--x-x-x-x-x-x--x-x-x-x-x-x--x--x--x--x-x-x-x-x-x--x-x-x-x-x-x---|
A|5-5-5-5-5-5--5-5-5-5-5-5--5-5-5-5-5-5--8--7--5--3-3-3-3-3-3--3-3-3-3-3-3---|
E|---------------------------------------------------------------------------|
Part E continued
e|---------------------------------------------------------------------------|
B|---------------------------------------------------------------------------|
G|5-5-5-5-5-5--4-4-4-4-4-4---------------------------------------------------|
D|x-x-x-x-x-x--x-x-x-x-x-x---------------------------------------------------|
A|3-3-3-3-3-3--2-2-2-2-2-2---------------------------------------------------|
E|---------------------------------------------------------------------------|
Heavy Distortion
Part E x4 3:28-4:17
e|---------------------------------------------------------------------------|
B|---------------------------------------------------------------------------|
G|7-7-7-7-7-7--7-7-7-7-7-7--7-7-7-7-7-7--10-9--7--5-5-5-5-5-5--5-5-5-5-5-5---|
D|x-x-x-x-x-x--x-x-x-x-x-x--x-x-x-x-x-x--x--x--x--x-x-x-x-x-x--x-x-x-x-x-x---|
A|5-5-5-5-5-5--5-5-5-5-5-5--5-5-5-5-5-5--8--7--5--3-3-3-3-3-3--3-3-3-3-3-3---|
E|---------------------------------------------------------------------------|
Part E continued
e|---------------------------------------------------------------------------|
B|---------------------------------------------------------------------------|
G|5-5-5-5-5-5--4-4-4-4-4-4---------------------------------------------------|
D|x-x-x-x-x-x--x-x-x-x-x-x---------------------------------------------------|
A|3-3-3-3-3-3--2-2-2-2-2-2---------------------------------------------------|
E|---------------------------------------------------------------------------|
Part G x2 4:18-4:30
e|---------------------------------------------------------------------------|
B|---------------------------------------------------------------------------|
G|--7---7---9-7-5-5/7--7-----------------------------------------------------|
D|--x---x---x-x-x-x-x--x-----------------------------------------------------|
A|--5---5---7-5-3-3/5--5-----------------------------------------------------|
E|---------------------------------------------------------------------------|
Part H 4:31-4:36
e|------------------------------------------12 (big bend)--------------------|
B|---------------------------------------------------------------------------|
G|--7--7--5--5---------------------------------------------------------------|
D|--x--x--x--x---3--3--2--2-------3--3--2------------------------------------|
A|--5--5--3--3---x--x--x--x--or---x--x--x------------------------------------|
E|---------------1--1--0--0-------1--1--0------------------------------------|

Part G x2 4:37-4:49
Part H    4:50-4:55 
Part G x2 4:56-5:08
Part H    5:09-5:14
Part G x4 5:15-5:40

Part I    5:41-5:46
e|---------------------------------------------------------------------------|
B|---------------------------------------------------------------------------|
G|--7--7--5--5--10-10-9--9---------------------------------------------------|
D|--x--x--x--x--x--x--x--x---------------------------------------------------|
A|--5--5--3--3--8--8--7--7---------------------------------------------------|
E|---------------------------------------------------------------------------|
Part J x4 5:47-5:59
e|--13-13-13-13-13-13--12-12-12-12-12-12--or 12-12-12-12---------------------|
B|-------------------------------------------------------10-10---------------|
G|---------------------------------------------------------------------------|
D|---------------------------------------------------------------------------|
A|---------------------------------------------------------------------------|
E|---------------------------------------------------------------------------|
Part K 6:00-6:05
e|---------------------------------------------------------------------------|
B|-11-11-11-11-11-11--10-10-10-10-10-10--13-13-13-13-13-13-------------------|
G|----------------------------------------------------------9-9-9-9-9-9------|
D|---------------------------------------------------------------------------|
A|---------------------------------------------------------------------------|
E|---------------------------------------------------------------------------|
Part J x4
Part K

Repeats for the rest of the song.

Guitar 2 on the verse parts plays amongst these notes:
e|---------------------------------------------------------------------------|
B|---------------------------------------------------------------------------|
G|--5--7--9--10--12--14------------------------------------------------------|
D|---------------------------------------------------------------------------|
A|---------------------------------------------------------------------------|
E|---------------------------------------------------------------------------|
Guitar 2 on the chorus plays something along the lines of 
e|---------------------------------------------------------------------------|
B|--------------------------+5--+5-------------------------------------------|
G|--------------+7----+7-+5--------------------------------------------------|
D|----------+7---------------------------------------------------------------|
A|-------+7------------------------------------------------------------------|
E|---------------------------------------------------------------------------|



| /  slide up
| \  slide down
| h  hammer-on
| p  pull-off
| ~  vibrato
| +  harmonic
| x  Mute note
===============================================================================
Related for Ratts Of The Capital tab