Song name
# A B C D E F G H I J K L M N O P Q R S T U V W X Y Z

Mogwai - Glasgow Mega-snake tab

First of all, I'd like to say thanks to Scott; the anomynous submitter of the intro for 
first two lines of my tab.

The sections enclosed by question-marks are parts I honestly have no idea about. If you 
you know the correct tab to one of these parts, please email me!

There are a lot of instruments in this track. My tab follows whatever guitar happens to 
out most in any particular bar. Please don't complain that the tab doesn't cover all the 
I already know this!

----------------------------------------------------------------------

Intro

e|-------------------8----|----------0---------7---|
B|-8-----------8----------|----7-----------7-------|
G|-----9-9---9-----9-----9|9\8-----8-----8---------|
D|---9-----9-----9-----9--|------9-----9-----9---9-|
A|------------------------|------------------------|
E|------------------------|------------------------|

e|---------------0--------|----------------------0-----0-|
B|--------10--------10----|----12--12-12-------0-----0---|
G|-8/11-11-----11--11---11|/12---12------12\11-----11----|
D|-----0-----0---------0--|------------------------------|
A|------------------------|------------------------------|
E|------------------------|------------------------------|

More guitars in

e|------------------------|------------------------|
B|------------------------|------------------------|
G|-9-9-9-9-9-9-9-9-9-9-9-9|8-8-8-8-8-8-8-8-8-8-8-8-|
D|------------------------|------------------------|
A|------------------------|------------------------|
E|------------------------|------------------------|

e|------------------------|------------------------|
B|/7-7-7-7-7-7-7-7-7-7-7-7|8-8-8-8---8-7-7-7-7-7-7-|
G|------------------------|------------------------|
D|------------------------|------------------------|
A|------------------------|------------------------|
E|------------------------|------------------------|

e|----------------|--------------|
B|----------8-----|--------7-----|
G|-11p9-9-9---11-9|9/8-8-8---9-8-|
D|----------------|--------------|
A|----------------|--------------|
E|----------------|--------------|
       ????????????????????????????
e|-----?--------------|-----------?---------|
B|-----?------10------|------10-10?---------|
G|-8/11?11-11----12-11|11h12------?12-11-11-|
D|-----?--------------|-----------?---------|
A|-----?--------------|-----------?---------|
E|-----?--------------|-----------?---------|
       ????????????????????????????
e|-------------------|----------------|
B|-------------8-----|----------7-----|
G|-11/9-9h11-9---11-9|9/8-8h9-8---9-8-|
D|-------------------|----------------|
A|-------------------|----------------|
E|-------------------|----------------|
       ???????????????????????????????
e|-----?-----------------|-----------?---------|
B|-----?---------10------|------10-10?---------|
G|-8/11?11h12-11----12-11|11h12------?12-11-11-|
D|-----?-----------------|-----------?---------|
A|-----?-----------------|-----------?---------|
E|-----?-----------------|-----------?---------|
       ???????????????????????????????
e|------------------------|---------------------------------|
B|------------------------|8-10-10-10-10-10-8-10-10-10-10-10|
G|-9-9-9-9-9-9-8-8-8-8-8-8|---------------------------------|
D|------------------------|---------------------------------|
A|------------------------|---------------------------------|
E|------------------------|---------------------------------|
                           ???????????????????????????????
e|------------------------|?-----------------------------?|
B|------------------------|?8-8-8-8-8-8-10-10-10-10-10-10?|
G|-9-9-9-9-9-9-8-8-8-8-8-8|?-----------------------------?|
D|------------------------|?-----------------------------?|
A|------------------------|?-----------------------------?|
E|------------------------|?-----------------------------?|
                           ???????????????????????????????
e|------------------------|---------------------------------|
B|------------------------|8-10-10-10-10-10-8-10-10-10-10-10|
G|-9-9-9-9-9-9-8-8-8-8-8-8|---------------------------------|
D|------------------------|---------------------------------|
A|------------------------|---------------------------------|
E|------------------------|---------------------------------|

e|------------------------|------------------------------|
B|------------------------|------------------------------|
G|-9-9-9-9-9-9-8-8-8-8-8-8|------------------------------|
D|------------------------|10-10-10-10-10-10-9-9-9-9-9-9-|
A|------------------------|------------------------------|
E|------------------------|------------------------------|

e|----------------|--------------|
B|----------8-----|--------7-----|
G|-11p9-9-9---11-9|9/8-8-8---9-8-|
D|----------------|--------------|
A|----------------|--------------|
E|----------------|--------------|
       ????????????????????????????
e|-----?--------------|-----------?---------|
B|-----?------10------|------10-10?---------|
G|-8/11?11-11----12-11|11h12------?12-11-11-|
D|-----?--------------|-----------?---------|
A|-----?--------------|-----------?---------|
E|-----?--------------|-----------?---------|
       ????????????????????????????
e|-------------------|----------------|
B|-------------8-----|----------7-----|
G|-11/9-9h11-9---11-9|9/8-8h9-8---9-8-|
D|-------------------|----------------|
A|-------------------|----------------|
E|-------------------|----------------|
       ???????????????????????????????
e|-----?-----------------|-----------?---------|
B|-----?---------10------|------10-10?---------|
G|-8/11?11h12-11----12-11|11h12------?12-11-11-|
D|-----?-----------------|-----------?---------|
A|-----?-----------------|-----------?---------|
E|-----?-----------------|-----------?---------|
       ???????????????????????????????
e|------------------------|---------------------------------|
B|------------------------|8-10-10-10-10-10-8-10-10-10-10-10|
G|-9-9-9-9-9-9-8-8-8-8-8-8|---------------------------------|
D|------------------------|---------------------------------|
A|------------------------|---------------------------------|
E|------------------------|---------------------------------|
                           ???????????????????????????????
e|------------------------|?-----------------------------?|
B|------------------------|?8-8-8-8-8-8-10-10-10-10-10-10?|
G|-9-9-9-9-9-9-8-8-8-8-8-8|?-----------------------------?|
D|------------------------|?-----------------------------?|
A|------------------------|?-----------------------------?|
E|------------------------|?-----------------------------?|
                           ???????????????????????????????
e|------------------------|---------------------------------|
B|------------------------|8-10-10-10-10-10-8-10-10-10-10-10|
G|-9-9-9-9-9-9-8-8-8-8-8-8|---------------------------------|
D|------------------------|---------------------------------|
A|------------------------|---------------------------------|
E|------------------------|---------------------------------|

e|------------------------|------------------------------|
B|------------------------|------------------------------|
G|-9-9-9-9-9-9-8-8-8-8-8-8|------------------------------|
D|------------------------|10-10-10-10-10-10-9-9-9-9-9-9-|
A|------------------------|------------------------------|
E|------------------------|------------------------------|

e|-----------|-----------------|
B|-----------|-----------------|
G|-----------|-----------------|
D|-----------|-----------------|
A|---------5-|-5-5p3-3-3-------|
E|-0---0-0---|-----------3-3-3-|

e|-----------|-----------------|
B|-----------|-----------------|
G|-----------|-----------------|
D|-----------|-----------------|
A|---------5-|-5-5p3-3-3-------|
E|-0---0-0---|-----------3-3-3-|

e|-----------|-----------------|
B|-----------|-----------------|
G|-----------|-----------------|
D|-----------|-----------------|
A|---------5-|-5-5p3-3-3-------|
E|-0---0-0---|-----------3-3-3-|

e|-----------|-----------------|
B|-----------|-----------------|
G|-----------|-----------------|
D|-----------|-----------------|
A|---------5-|-5-5p3-3-3-------|
E|-0---0-0---|-----------3-3-3-|

Or those 4 bars could be this?  e|-------------------------------|
                B|-----------------------------------------------|
                G|-----------------------------------------------|
                D|-----------------------------------------------|
                A|-2---2-2-5---5-5p3-3-3-------------------------|
                E|-0---0-0-0---0-0-0-0-0-3-3-3-------------------|

I incuded the bass in the next part. I know the timing in it is wrong, I'll sort it out 
time I update.

This is the part where it sounds quieter.

e|----------------------|--------------------------|
B|----------------------|--------------------------|
G|---------4-----------4|----------4-----------4---|
D|-2-2-2-2-2-2-2-2-2-2-2|2-2-2-2-2-2-2-2-2-2-2-2-2-|
A|----------------------|--------------------------|
E|----------------------|--------------------------|

e|-----2-----------2----|------2-----------2-------|
B|----------------------|--------------------------|
G|---------4-----------4|----------4-----------4---|
D|-2-2-2-2-2-2-2-2-2-2-2|2-2-2-2-2-2-2-2-2-2-2-2-2-|
A|----------------------|--------------------------|
E|----------------------|--------------------------|

e|----------------------|--------------------------|
B|----------------------|--------------------------|
G|---------4-----------4|----------4-----------4---|
D|-2-2-2-2-2-2-4-4-4-4-4|4-5-5-5-5-5-5-4-4-4-4-4-4-|
A|----------------------|--------------------------|
E|----------------------|--------------------------|

e|-----2-----------2----|------2-----------2-------|
B|----------------------|--------------------------|
G|---------4-----------4|----4-----4-----4---------|
D|-2-2-2-2-2-2-4-4-4-4-4|4-5-5-5-5-5-5-4-4-4-4-4-4-|
A|----------------------|--------------------------|
E|----------------------|--------------------------|

e|----------------------|--------------------------|
B|----------------------|--------------------------|
G|---------4-----------4|----------4-----------4---|
D|-2-2-2-2-2-2-2-2-2-2-2|2-2-2-2-2-2-2-2-2-2-2-2-2-|
A|----------------------|--------------------------|
E|----------------------|--------------------------|

e|-----2-----------2----|------2-----------2-------|
B|----------------------|--------------------------|
G|---------4-----------4|----------4-----------4---|
D|-2-2-2-2-2-2-2-2-2-2-2|2-2-2-2-2-2-2-2-2-2-2-2-2-|
A|----------------------|--------------------------|
E|----------------------|--------------------------|

The missing part here coming soon!

e|------------------------|---------------------------------|
B|------------------------|8-10-10-10-10-10-8-10-10-10-10-10|
G|-9-9-9-9-9-9-8-8-8-8-8-8|---------------------------------|
D|------------------------|---------------------------------|
A|------------------------|---------------------------------|
E|------------------------|---------------------------------|
                           ???????????????????????????????
e|------------------------|?-----------------------------?|
B|------------------------|?8-8-8-8-8-8-10-10-10-10-10-10?|
G|-9-9-9-9-9-9-8-8-8-8-8-8|?-----------------------------?|
D|------------------------|?-----------------------------?|
A|------------------------|?-----------------------------?|
E|------------------------|?-----------------------------?|
                           ???????????????????????????????
e|------------------------|---------------------------------|
B|------------------------|8-10-10-10-10-10-8-10-10-10-10-10|
G|-9-9-9-9-9-9-8-8-8-8-8-8|---------------------------------|
D|------------------------|---------------------------------|
A|------------------------|---------------------------------|
E|------------------------|---------------------------------|

e|------------------------|------------------------------|
B|------------------------|------------------------------|
G|-9-9-9-9-9-9-8-8-8-8-8-8|------------------------------|
D|------------------------|10-10-10-10-10-10-9-9-9-9-9-9-|
A|------------------------|------------------------------|
E|------------------------|------------------------------|

Outro

e|--------|---------------|-------|----------------|
B|--------|----7h8-109h8--|-------|----7h8-109h8---|
G|-9-9-8-8|9-9-----------9|9-9-8-8|9-9-----------9-|
D|--------|---------------|-------|----------------|
A|--------|---------------|-------|----------------|
E|--------|---------------|-------|----------------|


I don't claim this is perfect so please; any comments, improvements etc, my email 
is chickenluvr@hotmail.com
Tap to rate this tab
# A B C D E F G H I J K L M N O P Q R S T U V W X Y Z