Guitaretab - guitar tabs
Song name
# A B C D E F G H I J K L M N O P Q R S T U V W X Y Z

Motograter - Collapse tab

-----------------------------------------------------------------------------
			     Collapse  Motograter
-----------------------------------------------------------------------------
Tabbed by: Shock J
Email: jrkurth@yahoo.com

Tuning: Drop A (A E A D F# B)

Intro
B |-------------------------------------------------------------------------|
F#|-------------------------------------------------------------------------|
D |-------------------------------------------------------------------------|
A |55-555-555-5556-55-555-555-5556-55-555-555-5556-55-555-555-5556----------|
E |55-555-555-5556-55-555-555-5556-55-555-555-5556-55-555-555-5556----------|
A |55-555-555-5556-55-555-555-5556-55-555-555-5556-55-555-555-5556----------|

Verse
B |-------------------------------------------------------------------------|
F#|-------------------------------------------------------------------------|
D |-------------------------------------------------------------------------|
A |55-555-555-5556-55-555-555-5556-55-555-555-5556-55-555-555-5556----------|
E |55-555-555-5556-55-555-555-5556-55-555-555-5556-55-555-555-5556----------|
A |55-555-555-5556-55-555-555-5556-55-555-555-5556-55-555-555-5556----------|

B |-------------------------------------------------------------------------|
F#|-------------------------------------------------------------------------|
D |-------------------------------------------------------------------------|
A |55-555-555-5556-55-555-555-5556-55-555-555-5556-55-555-555-5556----------|
E |55-555-555-5556-55-555-555-5556-55-555-555-5556-55-555-555-5556----------|
A |55-555-555-5556-55-555-555-5556-55-555-555-5556-55-555-555-5556----------|

Chorus
B |-------------------------------------------------------------------------|
F#|-------------------------------------------------------------------------|
D |-------------------------------------------------------------------------|
A |10-------8-------5-5-65-5-55-65--10-------8-------5-5-65-5-55-65---------|
E |10-------8-------5-5-65-5-55-65--10-------8-------5-5-65-5-55-65---------|
A |10-------8-------5-5-65-5-55-65--10-------8-------5-5-65-5-55-65---------|

B |-------------------------------------------------------------------------|
F#|-------------------------------------------------------------------------|
D |-------------------------------------------------------------------------|
A |10-------8-------5-5-65-5-55-65--10-------8-------5----------------------|
E |10-------8-------5-5-65-5-55-65--10-------8-------5----------------------|
A |10-------8-------5-5-65-5-55-65--10-------8-------5----------------------|

(Intro)
B |-------------------------------------------------------------------------|
F#|-------------------------------------------------------------------------|
D |-------------------------------------------------------------------------|
A |55-555-555-5556-55-555-555-5556-55-555-555-5556-55-555-555-5556-5--------|
E |55-555-555-5556-55-555-555-5556-55-555-555-5556-55-555-555-5556-5--------|
A |55-555-555-5556-55-555-555-5556-55-555-555-5556-55-555-555-5556-5--------|

Verse
B |-------------------------------------------------------------------------|
F#|-------------------------------------------------------------------------|
D |-------------------------------------------------------------------------|
A |55-555-555-5556-55-555-555-5556-55-555-555-5556-55-555-555-5556----------|
E |55-555-555-5556-55-555-555-5556-55-555-555-5556-55-555-555-5556----------|
A |55-555-555-5556-55-555-555-5556-55-555-555-5556-55-555-555-5556----------|

B |-------------------------------------------------------------------------|
F#|-------------------------------------------------------------------------|
D |-------------------------------------------------------------------------|
A |55-555-555-5556-55-555-555-5556-55-555-555-5556-55-555-555-5556----------|
E |55-555-555-5556-55-555-555-5556-55-555-555-5556-55-555-555-5556----------|
A |55-555-555-5556-55-555-555-5556-55-555-555-5556-55-555-555-5556----------|
[ Tab from: http://www.guitaretab.com/m/motograter/142377.html ]
Chorus
B |-------------------------------------------------------------------------|
F#|-------------------------------------------------------------------------|
D |-------------------------------------------------------------------------|
A |10-------8-------5-5-65-5-55-65--10-------8-------5-5-65-5-55-65---------|
E |10-------8-------5-5-65-5-55-65--10-------8-------5-5-65-5-55-65---------|
A |10-------8-------5-5-65-5-55-65--10-------8-------5-5-65-5-55-65---------|

B |-------------------------------------------------------------------------|
F#|-------------------------------------------------------------------------|
D |-------------------------------------------------------------------------|
A |10-------8-------5-5-65-5-55-65--10-------8-------5----------------------|
E |10-------8-------5-5-65-5-55-65--10-------8-------5----------------------|
A |10-------8-------5-5-65-5-55-65--10-------8-------5----------------------|

Interlude
B |-------------------------------------------------------------------------|
F#|-------------------------------------------------------------------------|
D |-------------------------------------------------------------------------|
A |655565556555[11 11 11]11 11 655565556555[11 11 11]11 11------------------|
E |655565556555[11 11 11]11 11 655565556555[11 11 11]11 11------------------|
A |655565556555[11 11 11]11 11 655565556555[11 11 11]11 11------------------|

B |-------------------------------------------------------------------------|
F#|-------------------------------------------------------------------------|
D |-------------------------------------------------------------------------|
A |655565556555[11 11 11]11 11 655565556555[11 11 11]11 11------------------|
E |655565556555[11 11 11]11 11 655565556555[11 11 11]11 11------------------|
A |655565556555[11 11 11]11 11 655565556555[11 11 11]11 11------------------|

B |-------------------------------------------------------------------------|
F#|-------------------------------------------------------------------------|
D |877787778777----------------877787778777---------------------------------|
A |655565556555[13 13 13]13 13 655565556555[13 13 13]13 13------------------|
E |655565556555[11 11 11]11 11 655565556555[11 11 11]11 11------------------|
A |655565556555[11 11 11]11 11 655565556555[11 11 11]11 11------------------|

B |-------------------------------------------------------------------------|
F#|-------------------------------------------------------------------------|
D |877787778777----------------877787778777---------------------------------|
A |655565556555[13 13 13]13 13 655565556555[13 13 13]13 13------------------|
E |655565556555[11 11 11]11 11 655565556555[11 11 11]11 11------------------|
A |655565556555[11 11 11]11 11 655565556555[11 11 11]11 11------------------|

Chorus
B |-------------------------------------------------------------------------|
F#|-------------------------------------------------------------------------|
D |-------------------------------------------------------------------------|
A |10-------8-------5-5-65-5-55-65--10-------8-------5-5-65-5-55-65---------|
E |10-------8-------5-5-65-5-55-65--10-------8-------5-5-65-5-55-65---------|
A |10-------8-------5-5-65-5-55-65--10-------8-------5-5-65-5-55-65---------|

B |-------------------------------------------------------------------------|
F#|-------------------------------------------------------------------------|
D |-------------------------------------------------------------------------|
A |10-------8-------5-5-65-5-55-65--10-------8------------------------------|
E |10-------8-------5-5-65-5-55-65--10-------8------------------------------|
A |10-------8-------5-5-65-5-55-65--10-------8------------------------------|

Outro
B |-------------------------------------------------------------------------|
F#|-------------------------------------------------------------------------|
D |-------------------------------------------------------------------------|
A |5-5-65-5-55-65-5------------14\5-5-65-5-55-65-5------------14\-----------|
E |5-5-65-5-55-65-5------------14\5-5-65-5-55-65-5------------14\-----------|
A |5-5-65-5-55-65-5------------14\5-5-65-5-55-65-5------------14\-----------|

B |-------------------------------------------------------------------------|
F#|-------------------------------------------------------------------------|
D |-------------------------------------------------------------------------|
A |5-5-65-5-55-65-55-5-65-5-55-65-55-5-65-5-55-65-55-5-65-5-55--------------|
E |5-5-65-5-55-65-55-5-65-5-55-65-55-5-65-5-55-65-55-5-65-5-55--------------|
A |5-5-65-5-55-65-55-5-65-5-55-65-55-5-65-5-55-65-55-5-65-5-55--------------|

| \  slide down
| [11 11 11] triplets
=============================================================================
Related for Collapse tab