Song name
# A B C D E F G H I J K L M N O P Q R S T U V W X Y Z

Mudhoney - Touch Me Im Sick tab

(4/4 Time) (Tuning [Low to High]: Eb Ab Db Gb Bb Eb) Intro:
 Ab    D   C#B F#  Ab    D   C#B
----------------------------------------------------------------------------|
----------------------------------------------------------------------------|
-------8-8-7-5-----------8-8-7-5--------------------------------------------|
-7-7-7-8-8-7-5-5---7-7-7-8-8-7-5--------------------------------------------|
-7-7-7-6-6-5-3-5---7-7-7-6-6-5-3--------------------------------------------|
-5-5-5---------3---5-5-5----------------------------------------------------|
(Guitar 1) (Then Both Guitars 1 and 2 Play the Same as the First Part of the
Verse Twice)

 Ab    D   C#B F#  Ab    D   C#B
----------------------------------------------------------------------------|
----------------------------------------------------------------------------|
-------8-8-7-5-----------8-8-7-5--------------------------------------------|
-7-7-7-8-8-7-5-5---7-7-7-8-8-7-5--------------------------------------------|
-7-7-7-6-6-5-3-5---7-7-7-6-6-5-3--------------------------------------------|
-5-5-5---------3---5-5-5----------------------------------------------------|
(Guitar 1) (Both Guitars Repeat Twice Then Play Below, Then This Twice More)
----------------------------------------------------------------------------|
----------------------------------------------------------------------------|
---------------------------8-7-5--------------------------------------------|
-7-7---------------7-7-----8-7-5--------------------------------------------|
-7-7---------------7-7-----6-5-3--------------------------------------------|
-5-5---------------5-5------------------------------------------------------|
(Guitar 2)

 Ab    D   C#B F#  Ab    B C#B  C#              B
----------------------------------------------------------------------------|
----------------------------------------------------------------------------|
-------8-8-7-5-----------5-7-5--7-7-7-7-7-7-7-7-5---------------------------|
-7-7-7-8-8-7-5-5---7-7-7-5-7-5--7-7-7-7-7-7-7-7-5---------------------------|
-7-7-7-6-6-5-3-5---7-7-7-3-5-3--5-5-5-5-5-5-5-5-3---------------------------|
-5-5-5---------3---5-5-5----------------------------------------------------|
(Guitar 1)
----------------------------------------------------------------------------|
----------------------------------------------------------------------------|
-------------------------5-7-5--7-7-7-7-7-7-7-7-5---------------------------|
-7-7---------------7-7---5-7-5--7-7-7-7-7-7-7-7-5---------------------------|
-7-7---------------7-7---3-5-3--5-5-5-5-5-5-5-5-3---------------------------|
-5-5---------------5-5------------------------------------------------------|
(Guitar 2)


Chorus:
 Ab              C#      Eb    C#  Eb    C#  Eb   C#   Eb    C#  B
----------------------------------------------------------------------------|
----------------------------------------------------------------------------|
-----------------7-7-7-7-9-9-9-7-7-9-9-9-7-7-9-9-9-7-7-9-9-9-7-7-5----------|
-7-7-7-7-7-7-7-7-7-7-7-7-9-9-9-7-7-9-9-9-7-7-9-9-9-7-7-9-9-9-7-7-5----------|
-7-7-7-7-7-7-7-7-5-5-5-5-7-7-7-5-5-7-7-7-5-5-7-7-7-5-5-7-7-7-5-5-3----------|
-5-5-5-5-5-5-5-5------------------------------------------------------------|
(Guitars 1 and 2)


Solo:
 Ab
----------------------------------------------------------------------------|
------------------------------5-------------5---5---------------------------|
-----7-7(9)-(9)7-5-----7-7(9)---7(9)7-5-----5---5------7(9)(9)(9)(9)(9)(9)--|
-7-7---------------7-7------------------7-7---7----7-7----------------------|
-7-7---------------7-7------------------7-7--------7-7----------------------|
-5-5---------------5-5------------------5-5--------5-5----------------------|
(Guitar 1)
----------------------------------------------------------------------------|
----------------------------------------------------------------------------|
----------------------------------------------------------------------------|
-7-7---------------7-7------------------7-7--------7-7----------------------|
-7-7---------------7-7------------------7-7--------7-7----------------------|
-5-5---------------5-5------------------5-5--------5-5----------------------|
(Guitar 2)

                                              DC#B F#   Ab
----------------------------------------------------------5---5---5---5---5-|
--------------------------------------------------------8---8---8---8---8---|
-(9)(9)(9)(9)(9)(9)(9)(9)(9)(9)(9)(9)(9)(9)(9)7-5---5-----------------------|
--------------------------------------------------7-------------------------|
----------------------------------------------------------------------------|
----------------------------------------------------------------------------|
(Guitar 1) (Guitar 2 Plays Same as the First Part of the Verse)

        D   C#B F#     Ab                        D    C# B  F#
-5-5-5---5--------5---5-8-8(10)(10)8-5--------------------------------------|
-------8---8----8---8--------------------5----5--5--5--5--5--5---5----------|
-----------------------------------------7(9)(9)(9)(9)(9)(9)(9)-(9)7-5------|
-----------------------------------------------------------------------7----|
----------------------------------------------------------------------------|
----------------------------------------------------------------------------|
(Guitar 1)

 Ab               D   C#B F#
---------8-8-8-8-/10-10-8-5-5-----------------------------------------------|
-5-5-8-8--------------------------------------------------------------------|
----------------------------------------------------------------------------|
----------------------------------------------------------------------------|
----------------------------------------------------------------------------|
----------------------------------------------------------------------------|
(Guitar 1)


Ending:
 Ab
----------------------------------------------------------------------------|
----------------------------------------------------------------------------|
----------------------------------------------------------------------------|
-7-7------------------------------------------------------------------------|
-7-7------------------------------------------------------------------------|
-5-5------------------------------------------------------------------------|
(Guitars 1 and 2)
Tap to rate this tab
# A B C D E F G H I J K L M N O P Q R S T U V W X Y Z