Murderdolls - Summertime Suicide tab

This Is The Tab For Summertime Suicide-Murderdolls

DROP C TUNING

. = Palm Mute
/ = slide up
b = bend
r = release

INTRO
BOTH GUITARISTS
|------------------------------------------------------------------|
|------------------------------------------------------------------|
|------------------5---------------7---------5---3-----------------|
|--3---------------5---------------7---------5---3-----------------|
|--3---------------3---------------5---------3---1-----------------|
|--3---------------------------------------------------------------|
   1   2   3   4   1   2   3   4   1   2   3   4   1   2   3   4

BOTH GUITARISTS
|------------------------------------------------------------------|
|------------------------------------------------------------------|
|------------------5---------------7-7-7-7-7-7-7-7-7-7-7-7-7-7-7-7-|
|--3---------------5---------------7-7-7-7-7-7-7-7-7-7-7-7-7-7-7-7-|
|--3---------------3---------------5-5-5-5-5-5-5-5-5-5-5-5-5-5-5-5-|
|--3---------------------------------------------------------------|
                                   . . . . . . . . . . . . . . . .
   1   2   3   4   1   2   3   4   1   2   3   4   1   2   3   4

LEAD
|----------------------------------------------------------------------|
|--5-5-5-----------------------------------------------------------5-5-|
|----------6---6-------5-----------------------------------------------|
|--------------------------------------7---------5---3-----------------|
|----------------------------------------------------------------------|
|----------------------------------------------------------------------|
       1   2   3   4   1   2   3   4   1   2   3   4   1   2   3   4

RHYTHM
|------------------------------------------------------------------|
|------------------------------------------------------------------|
|------------------5---5---5---5---7---7---7-5---3-----3---3---3---|
|--3---3---3---3---5---5---5---5---7---7---7-5---3-----3---3---3---|
|--3---3---3---3---3---3---3---3---5---5---5-3---1-----1---1---1---|
|--3---3---3---3---------------------------------------------------|
   1   2   3   4   1   2   3   4   1   2   3   4   1   2   3   4

LEAD
|--------------------------------8b--------------------------------|
|--5---------------------------------------------------------------|
|------6---6-------5-----------------------------------------------|
|------------------------------------------------------------------|
|------------------------------------------------------------------|
|------------------------------------------------------------------|
   1   2   3   4   1   2   3   4   1   2   3   4   1   2   3   4

RHYTHM
|-------------------------------------------------------------------|
|-------------------------------------------------------------------|
|------------------5---5---5---5---5/7-7-7-7-7-7-7-7-7-7-7-7-7-7-5--|
|--3---3---3---3---5---5---5---5---5/7-7-7-7-7-7-7-7-7-7-7-7-7-7-5--|
|--3---3---3---3---3---3---3---3---3/5-5-5-5-5-5-5-5-5-5-5-5-5-5-3--|
|--3---3---3---3----------------------------------------------------|
                                       . . . . . . . . . . . . . .
   1   2   3   4   1   2   3   4   1   2   3   4   1   2   3   4

RHYTHM
|----------------------------------|
|----------------------------------|
|---/7-7-7-7-7-7-7-5---------------|
|---/7-7-7-7-7-7-7-5---------------|
|---/5-5-5-5-5-5-5-3---------------|
|----------------------------------|
       . . . . . .
   1   2   3   4   1   2   3   4

PRE-VERSE
BOTH
|------------------------------------------------------------------|
|------------------------------------------------------------------|
|------------------------------------------------------------5---5-|
|--3-3-3-3-3-3-3-3-3-3-3-3-3-3-3-3-3-3-3-3-3-3-3-3-3-3-3-3-3-5---5-|
|--3-3-3-3-3-3-3-3-3-3-3-3-3-3-3-3-3-3-3-3-3-3-3-3-3-3-3-3-3-3---3-|
|--3-3-3-3-3-3-3-3-3-3-3-3-3-3-3-3-3-3-3-3-3-3-3-3-3-3-3-3-3-------|
   . . . . . . . . . . . . . . . . . . . . . . . . . . . . .
   1   2   3   4   1   2   3   4   1   2   3   4   1   2   3   4

VERSE 1
BOTH
|------------------------------------------------------------------|
|------------------------------------------------------------------|
|------------------------------------------------------------------|
|--3-3-3-3-3-3-3-3-3-3-3-3-3-3-3-3-0-0-0-0-0-0-0-0-0-0-0-0-0-0-0-0-|
|--3-3-3-3-3-3-3-3-3-3-3-3-3-3-3-3-0-0-0-0-0-0-0-0-0-0-0-0-0-0-0-0-|
|--3-3-3-3-3-3-3-3-3-3-3-3-3-3-3-3-0-0-0-0-0-0-0-0-0-0-0-0-0-0-0-0-|
   . . . . . . . . . . . . . . . . . . . . . . . . . . . . . . . .
   1   2   3   4   1   2   3   4   1   2   3   4   1   2   3   4

BOTH
|------------------------------------------------------------------|
|------------------------------------------------------------------|
|--3-3-3-3-3-3-3-3-5-5-5-5-5-5-5-5---------------------------5---5-|
|--3-3-3-3-3-3-3-3-5-5-5-5-5-5-5-5-0-0-0-0-0-0-0-0-0-0-0-0-0-5---5-|
|--1-1-1-1-1-1-1-1-3-3-3-3-3-3-3-3-0-0-0-0-0-0-0-0-0-0-0-0-0-3---3-|
|----------------------------------0-0-0-0-0-0-0-0-0-0-0-0-0-------|
   . . . . . . . . . . . . . . . . . . . . . . . . . . . . .
   1   2   3   4   1   2   3   4   1   2   3   4   1   2   3   4

BOTH
|------------------------------------------------------------------|
|------------------------------------------------------------------|
|------------------------------------------------------------------|
|--3-3-3-3-3-3-3-3-3-3-3-3-3-3-3-3-0-0-0-0-0-0-0-0-0-0-0-0-0-0-0-0-|
|--3-3-3-3-3-3-3-3-3-3-3-3-3-3-3-3-0-0-0-0-0-0-0-0-0-0-0-0-0-0-0-0-|
|--3-3-3-3-3-3-3-3-3-3-3-3-3-3-3-3-0-0-0-0-0-0-0-0-0-0-0-0-0-0-0-0-|
   . . . . . . . . . . . . . . . . . . . . . . . . . . . . . . . .
   1   2   3   4   1   2   3   4   1   2   3   4   1   2   3   4

BOTH
|------------------------------------------------------------------|
|------------------------------------------------------------------|
|--3-3-3-3-3-3-3-3-5-5-5-5-5-5-5-5-------------------------7---5---|
|--3-3-3-3-3-3-3-3-5-5-5-5-5-5-5-5-0-0-0-0-0-0-0-0-0-0-0-0-7---5---|
|--1-1-1-1-1-1-1-1-3-3-3-3-3-3-3-3-0-0-0-0-0-0-0-0-0-0-0-0-5---3---|
|----------------------------------0-0-0-0-0-0-0-0-0-0-0-0---------|
   . . . . . . . . . . . . . . . . . . . . . . . . . . . .
   1   2   3   4   1   2   3   4   1   2   3   4   1   2   3   4

PRE-CHORUS
BOTH
|------------------------------------------------------------------|
|------------------------------------------------------------------|
|--3---3---3---3---5---5---5---5---5/7-7-7-7-7-7-7-7-7-7-7-7-7-7-7-|
|--3---3---3---3---5---5---5---5---5/7-7-7-7-7-7-7-7-7-7-7-7-7-7-7-|
|--1---1---1---1---3---3---3---3---3/5-5-5-5-5-5-5-5-5-5-5-5-5-5-5-|
|------------------------------------------------------------------|
                                       . . . . . . . . . . . . . .
   1   2   3   4   1   2   3   4   1   2   3   4   1   2   3   4

BOTH
|----------------------------------|
|----------------------------------|
|--3---3---3---3---5---------------|
|--3---3---3---3---5---------------|
|--1---1---1---1---3---------------|
|----------------------------------|
   1   2   3   4   1   2   3   4

CHORUS
BOTH
|------------------------------------------------------------------|
|------------------------------------------------------------------|
|------------------5---5---5---5---7---7---7-5---3-----3---3---3---|
|--3---3---3---3---5---5---5---5---7---7---7-5---3-----3---3---3---|
|--3---3---3---3---3---3---3---3---5---5---5-3---1-----1---1---1---|
|--3---3---3---3---------------------------------------------------|
   1   2   3   4   1   2   3   4   1   2   3   4   1   2   3   4

BOTH
|------------------------------------------------------------------|
|------------------------------------------------------------------|
|------------------5---5---5---5---7---7---7-5---3-----3---3---3---|
|--3---3---3---3---5---5---5---5---7---7---7-5---3-----3---3---3---|
|--3---3---3---3---3---3---3---3---5---5---5-3---1-----1---1---1---|
|--3---3---3---3---------------------------------------------------|
   1   2   3   4   1   2   3   4   1   2   3   4   1   2   3   4

BOTH
|------------------------------------------------------------------|
|------------------------------------------------------------------|
|------------------5-5-------------7---7---7-5---3-----3---3---3---|
|--3-3-------------5-5-------------7---7---7-5---3-----3---3---3---|
|--3-3-------------3-3-------------5---5---5-3---1-----1---1---1---|
|--3-3-------------------------------------------------------------|
   1   2   3   4   1   2   3   4   1   2   3   4   1   2   3   4

BOTH
|-------------------------------------------------------------------|
|-------------------------------------------------------------------|
|------------------5---5---5---5---5/7-7-7-7-7-7-7-7-7-7-7-7-7-7-5--|
|--3---3---3---3---5---5---5---5---5/7-7-7-7-7-7-7-7-7-7-7-7-7-7-5--|
|--3---3---3---3---3---3---3---3---3/5-5-5-5-5-5-5-5-5-5-5-5-5-5-3--|
|--3---3---3---3----------------------------------------------------|
                                       . . . . . . . . . . . . . .
   1   2   3   4   1   2   3   4   1   2   3   4   1   2   3   4

BOTH
|----------------------------------|
|----------------------------------|
|---/7-7-7-7-7-7-7-5---------------|
|---/7-7-7-7-7-7-7-5---------------|
|---/5-5-5-5-5-5-5-3---------------|
|----------------------------------|
       . . . . . .
   1   2   3   4   1   2   3   4

PRE-VERSE
BOTH
|------------------------------------------------------------------|
|------------------------------------------------------------------|
|------------------------------------------------------------5---5-|
|--3-3-3-3-3-3-3-3-3-3-3-3-3-3-3-3-3-3-3-3-3-3-3-3-3-3-3-3-3-5---5-|
|--3-3-3-3-3-3-3-3-3-3-3-3-3-3-3-3-3-3-3-3-3-3-3-3-3-3-3-3-3-3---3-|
|--3-3-3-3-3-3-3-3-3-3-3-3-3-3-3-3-3-3-3-3-3-3-3-3-3-3-3-3-3-------|
   . . . . . . . . . . . . . . . . . . . . . . . . . . . . .
   1   2   3   4   1   2   3   4   1   2   3   4   1   2   3   4

VERSE 2
BOTH
|------------------------------------------------------------------|
|------------------------------------------------------------------|
|------------------------------------------------------------------|
|--3-3-3-3-3-3-3-3-3-3-3-3-3-3-3-3-0-0-0-0-0-0-0-0-0-0-0-0-0-0-0-0-|
|--3-3-3-3-3-3-3-3-3-3-3-3-3-3-3-3-0-0-0-0-0-0-0-0-0-0-0-0-0-0-0-0-|
|--3-3-3-3-3-3-3-3-3-3-3-3-3-3-3-3-0-0-0-0-0-0-0-0-0-0-0-0-0-0-0-0-|
   . . . . . . . . . . . . . . . . . . . . . . . . . . . . . . . .
   1   2   3   4   1   2   3   4   1   2   3   4   1   2   3   4

BOTH
|------------------------------------------------------------------|
|------------------------------------------------------------------|
|--3-3-3-3-3-3-3-3-5-5-5-5-5-5-5-5---------------------------5---5-|
|--3-3-3-3-3-3-3-3-5-5-5-5-5-5-5-5-0-0-0-0-0-0-0-0-0-0-0-0-0-5---5-|
|--1-1-1-1-1-1-1-1-3-3-3-3-3-3-3-3-0-0-0-0-0-0-0-0-0-0-0-0-0-3---3-|
|----------------------------------0-0-0-0-0-0-0-0-0-0-0-0-0-------|
   . . . . . . . . . . . . . . . . . . . . . . . . . . . . .
   1   2   3   4   1   2   3   4   1   2   3   4   1   2   3   4

BOTH
|------------------------------------------------------------------|
|------------------------------------------------------------------|
|------------------------------------------------------------------|
|--3-3-3-3-3-3-3-3-3-3-3-3-3-3-3-3-0-0-0-0-0-0-0-0-0-0-0-0-0-0-0-0-|
|--3-3-3-3-3-3-3-3-3-3-3-3-3-3-3-3-0-0-0-0-0-0-0-0-0-0-0-0-0-0-0-0-|
|--3-3-3-3-3-3-3-3-3-3-3-3-3-3-3-3-0-0-0-0-0-0-0-0-0-0-0-0-0-0-0-0-|
   . . . . . . . . . . . . . . . . . . . . . . . . . . . . . . . .
   1   2   3   4   1   2   3   4   1   2   3   4   1   2   3   4

BOTH
|------------------------------------------------------------------|
|------------------------------------------------------------------|
|--3-3-3-3-3-3-3-3-5-5-5-5-5-5-5-5-------------------------7---5---|
|--3-3-3-3-3-3-3-3-5-5-5-5-5-5-5-5-0-0-0-0-0-0-0-0-0-0-0-0-7---5---|
|--1-1-1-1-1-1-1-1-3-3-3-3-3-3-3-3-0-0-0-0-0-0-0-0-0-0-0-0-5---3---|
|----------------------------------0-0-0-0-0-0-0-0-0-0-0-0---------|
   . . . . . . . . . . . . . . . . . . . . . . . . . . . .
   1   2   3   4   1   2   3   4   1   2   3   4   1   2   3   4

PRE-CHORUS
BOTH
|------------------------------------------------------------------|
|------------------------------------------------------------------|
|--3---3---3---3---5---5---5---5---5/7-7-7-7-7-7-7-7-7-7-7-7-7-7-7-|
|--3---3---3---3---5---5---5---5---5/7-7-7-7-7-7-7-7-7-7-7-7-7-7-7-|
|--1---1---1---1---3---3---3---3---3/5-5-5-5-5-5-5-5-5-5-5-5-5-5-5-|
|------------------------------------------------------------------|
                                       . . . . . . . . . . . . . .
   1   2   3   4   1   2   3   4   1   2   3   4   1   2   3   4

BOTH
|----------------------------------|
|----------------------------------|
|--3---3---3---3---5---------------|
|--3---3---3---3---5---------------|
|--1---1---1---1---3---------------|
|----------------------------------|
   1   2   3   4   1   2   3   4

CHORUS
BOTH
|------------------------------------------------------------------|
|------------------------------------------------------------------|
|------------------5---5---5---5---7---7---7-5---3-----3---3---3---|
|--3---3---3---3---5---5---5---5---7---7---7-5---3-----3---3---3---|
|--3---3---3---3---3---3---3---3---5---5---5-3---1-----1---1---1---|
|--3---3---3---3---------------------------------------------------|
   1   2   3   4   1   2   3   4   1   2   3   4   1   2   3   4

BOTH
|------------------------------------------------------------------|
|------------------------------------------------------------------|
|------------------5---5---5---5---7---7---7-5---3-----3---3---3---|
|--3---3---3---3---5---5---5---5---7---7---7-5---3-----3---3---3---|
|--3---3---3---3---3---3---3---3---5---5---5-3---1-----1---1---1---|
|--3---3---3---3---------------------------------------------------|
   1   2   3   4   1   2   3   4   1   2   3   4   1   2   3   4

BOTH
|------------------------------------------------------------------|
|------------------------------------------------------------------|
|------------------5-5-------------7---7---7-5---3-----3---3---3---|
|--3-3-------------5-5-------------7---7---7-5---3-----3---3---3---|
|--3-3-------------3-3-------------5---5---5-3---1-----1---1---1---|
|--3-3-------------------------------------------------------------|
   1   2   3   4   1   2   3   4   1   2   3   4   1   2   3   4

BOTH
|-------------------------------------------------------------------|
|-------------------------------------------------------------------|
|------------------5---5---5---5---5/7-7-7-7-7-7-7-7-7-7-7-7-7-7-5--|
|--3---3---3---3---5---5---5---5---5/7-7-7-7-7-7-7-7-7-7-7-7-7-7-5--|
|--3---3---3---3---3---3---3---3---3/5-5-5-5-5-5-5-5-5-5-5-5-5-5-3--|
|--3---3---3---3----------------------------------------------------|
                                       . . . . . . . . . . . . . .
   1   2   3   4   1   2   3   4   1   2   3   4   1   2   3   4

BOTH
|----------------------------------|
|----------------------------------|
|---/7-7-7-7-7-7-7-5-5-5-5-5-5-5-5-|
|---/7-7-7-7-7-7-7-5-5-5-5-5-5-5-5-|
|---/5-5-5-5-5-5-5-3-3-3-3-3-3-3-3-|
|----------------------------------|
       . . . . . .
   1   2   3   4   1   2   3   4

SOLO
LEAD
|--------8---------------8---------8b----------------6-5-6-5-------|
|-/6--------------/5-----------------------------------------8-6-8-|
|------------------------------------------------------------------|
|------------------------------------------------------------------|
|------------------------------------------------------------------|
|------------------------------------------------------------------|
   1   2   3   4   1   2   3   4   1   2   3   4   1   2   3   4

RHYTHM
|------------------------------------------------------------------|
|------------------------------------------------------------------|
|------------------5---5---5---5---7---7---7-5---3-----3---3---3---|
|--3---3---3---3---5---5---5---5---7---7---7-5---3-----3---3---3---|
|--3---3---3---3---3---3---3---3---5---5---5-3---1-----1---1---1---|
|--3---3---3---3---------------------------------------------------|
   1   2   3   4   1   2   3   4   1   2   3   4   1   2   3   4

LEAD
|--------8---------------8---------13b-----13br--------------------|
|-/6--------------/5-----------------------------15----------------|
|------------------------------------------------------------------|
|------------------------------------------------------------------|
|------------------------------------------------------------------|
|------------------------------------------------------------------|
   1   2   3   4   1   2   3   4   1   2   3   4   1   2   3   4

RHYTHM
|------------------------------------------------------------------|
|------------------------------------------------------------------|
|------------------5---5---5---5---7---7---7-5---3-----3---3---3---|
|--3---3---3---3---5---5---5---5---7---7---7-5---3-----3---3---3---|
|--3---3---3---3---3---3---3---3---5---5---5-3---1-----1---1---1---|
|--3---3---3---3---------------------------------------------------|
   1   2   3   4   1   2   3   4   1   2   3   4   1   2   3   4

LEAD
|--13--------------12--------------8b----------------6-5-6-5-------|
|--------13--------------13----------------------------------8-6-8-|
|------------------------------------------------------------------|
|------------------------------------------------------------------|
|------------------------------------------------------------------|
|------------------------------------------------------------------|
   1   2   3   4   1   2   3   4   1   2   3   4   1   2   3   4

RHYTHM
|------------------------------------------------------------------|
|------------------------------------------------------------------|
|------------------5---5---5---5---7---7---7-5---3-----3---3---3---|
|--3---3---3---3---5---5---5---5---7---7---7-5---3-----3---3---3---|
|--3---3---3---3---3---3---3---3---5---5---5-3---1-----1---1---1---|
|--3---3---3---3---------------------------------------------------|
   1   2   3   4   1   2   3   4   1   2   3   4   1   2   3   4

LEAD
|--------8---------------8---------8b------------------------------|
|-/6--------------/5-----------------------------------------------|
|------------------------------------------------------------------|
|------------------------------------------------------------------|
|------------------------------------------------------------------|
|------------------------------------------------------------------|
   1   2   3   4   1   2   3   4   1   2   3   4   1   2   3   4

RHYTHM
|-------------------------------------------------------------------|
|-------------------------------------------------------------------|
|------------------5---5---5---5---5/7-7-7-7-7-7-7-7-7-7-7-7-7-7-5--|
|--3---3---3---3---5---5---5---5---5/7-7-7-7-7-7-7-7-7-7-7-7-7-7-5--|
|--3---3---3---3---3---3---3---3---3/5-5-5-5-5-5-5-5-5-5-5-5-5-5-3--|
|--3---3---3---3----------------------------------------------------|
                                       . . . . . . . . . . . . . .
   1   2   3   4   1   2   3   4   1   2   3   4   1   2   3   4

RHYTHM
|----------------------------------|
|----------------------------------|
|---/7-7-7-7-7-7-7-5---------------|
|---/7-7-7-7-7-7-7-5---------------|
|---/5-5-5-5-5-5-5-3---------------|
|----------------------------------|
       . . . . . .
   1   2   3   4   1   2   3   4

CHORUS
BOTH
|------------------------------------------------------------------|
|------------------------------------------------------------------|
|------------------5---5---5---5---7---7---7-5---3-----3---3---3---|
|--3---3---3---3---5---5---5---5---7---7---7-5---3-----3---3---3---|
|--3---3---3---3---3---3---3---3---5---5---5-3---1-----1---1---1---|
|--3---3---3---3---------------------------------------------------|
   1   2   3   4   1   2   3   4   1   2   3   4   1   2   3   4

BOTH
|------------------------------------------------------------------|
|------------------------------------------------------------------|
|------------------5---5---5---5---7---7---7-5---3-----3---3---3---|
|--3---3---3---3---5---5---5---5---7---7---7-5---3-----3---3---3---|
|--3---3---3---3---3---3---3---3---5---5---5-3---1-----1---1---1---|
|--3---3---3---3---------------------------------------------------|
   1   2   3   4   1   2   3   4   1   2   3   4   1   2   3   4

BOTH
|------------------------------------------------------------------|
|------------------------------------------------------------------|
|------------------5-5-------------7---7---7-5---3-----3---3---3---|
|--3-3-------------5-5-------------7---7---7-5---3-----3---3---3---|
|--3-3-------------3-3-------------5---5---5-3---1-----1---1---1---|
|--3-3-------------------------------------------------------------|
   1   2   3   4   1   2   3   4   1   2   3   4   1   2   3   4

BOTH
|-------------------------------------------------------------------|
|-------------------------------------------------------------------|
|------------------5---5---5---5---5/7-7-7-7-7-7-7-7-7-7-7-7-7-7-5--|
|--3---3---3---3---5---5---5---5---5/7-7-7-7-7-7-7-7-7-7-7-7-7-7-5--|
|--3---3---3---3---3---3---3---3---3/5-5-5-5-5-5-5-5-5-5-5-5-5-5-3--|
|--3---3---3---3----------------------------------------------------|
                                       . . . . . . . . . . . . . .
   1   2   3   4   1   2   3   4   1   2   3   4   1   2   3   4

BOTH
|-------------------------------------------------------------------|
|-------------------------------------------------------------------|
|---/7-7-7-7-7-7-7-7-7-7-7-7-7-7-5--/7-7-7-7-7-7-7-7-7-7-7-7-7-7-5--|
|---/7-7-7-7-7-7-7-7-7-7-7-7-7-7-5--/7-7-7-7-7-7-7-7-7-7-7-7-7-7-5--|
|---/5-5-5-5-5-5-5-5-5-5-5-5-5-5-3--/5-5-5-5-5-5-5-5-5-5-5-5-5-5-3--|
|-------------------------------------------------------------------|
       . . . . . . . . . . . . .       . . . . . . . . . . . . .
   1   2   3   4   1   2   3   4   1   2   3   4   1   2   3   4

BOTH
|------------------------------------------------------------------|
|------------------------------------------------------------------|
|---/7-7-7-7-7-7-7-5-5-5-5-5-3-2-----------------------------------|
|---/7-7-7-7-7-7-7-5-5-5-5-5-3-2-5-3-------------------------------|
|---/5-5-5-5-5-5-5-3-3-3-3-3-1-0-5-3-------------------------------|
|--------------------------------5-3-------------------------------|
       . . . . . . . . . . . . . .
   1   2   3   4   1   2   3   4   1   2   3   4   1   2   3   4




Hope This Is Helpful.
Tap to rate this tab
 
# A B C D E F G H I J K L M N O P Q R S T U V W X Y Z