Song name
# A B C D E F G H I J K L M N O P Q R S T U V W X Y Z

Negative Approach - Lost Cause tab

e|---------------------------------------------------------------------------|
B|---------------------------------------------------------------------------|
G|---------------------------------------------------------------------------|
D|------------------9-9------------------------------------------------------|
A|-----9-9--7-7--9--7-7------------------------------------------------------|
E|-----7-7--5-5--7-----------------------------------------------------------|

  First time: 4x, second time: 4x, third time: 4x, end of song: 1x  

e|---------------------------------------------------------------------------|
B|---------------------------------------------------------------------------|
G|---------------------------------------------------------------------------|
D|---------------5-----------------------------------------------------------|
A|-----7-7-7-7---3---5-5-----------------------------------------------------|
E|-----5-5-5-5-------3-3-----------------------------------------------------|

  First time: 4x, second time: 4x, third time: 4x
Tap to rate this tab
 
# A B C D E F G H I J K L M N O P Q R S T U V W X Y Z