Song name
# A B C D E F G H I J K L M N O P Q R S T U V W X Y Z

Negative Approach - Fair Warning tab

Great NA song.

e|---------------------------------------------------------------------------|
B|---------------------------------------------------------------------------|
G|---------------------------------------------------------------------------|
D|---------------------------------------------------------------------------|
A|---5--7--9-9-9-9-9-9-9-9--5--9-9-9-9-9-9-9-9-(6x)--------------------------|
E|---3--5--7-7-7-7-7-7-7-7--3--7-7-7-7-7-7-7-7-------------------------------|

Guitar plays alone in beginning (2x), then 4x 
e|---------------------------------------------------------------------------|
B|---------------------------------------------------------------------------|
G|---------------------------------------------------------------------------|
D|----------7---------9------------------------------------------------------|
A|---5-5-5--5--7-7-7--7--(2x)------------------------------------------------|
E|---3-3-3-----5-5-5---------------------------------------------------------|

  This is a fair warning I'm giving to you...
e|---------------------------------------------------------------------------|
B|---------------------------------------------------------------------------|
G|---------------------------------------------------------------------------|
D|---------------------------------------------------------------------------|
A|---5-5--7-7--9-------------------------------------------------------------|
E|---3-3--5-5--7-------------------------------------------------------------|

Tap to rate this tab
 
# A B C D E F G H I J K L M N O P Q R S T U V W X Y Z