Song name
# A B C D E F G H I J K L M N O P Q R S T U V W X Y Z

Negative Approach - Cant Tell No One tab

-------------------------------------------------------------------------------
			     CAN'T TELL NO ONE - Negative Approach
-------------------------------------------------------------------------------
Tabbed by: Blacksailstippa
Email: snake_tippa@hotmail.com

Tuning: Standard


INTRO x 4
e|-------------------|
B|-------------------|
G|-------------------|
D|---10/11-11-11-11--|
A|---10/11-11-11-11--|
E|---8/-9--9--9--9---|

VERSE x 2
e|--------------------------------------------------------------------------|
B|--------------------------------------------------------------------------|
G|--------------------------------------------------------------------------|
D|--------------11-11---------------11-11-----------------------------------|
A|--11-11-11-11--9--9--11-11-11-11---9--9--11-11----------------------------|
E|---9--9--9--9---------9--9--9--9----------9--9----------------------------|

e|--------------------------------------------------------------------------|
B|--------------------------------------------------------------------------|
G|--------------------------------------------------------------------------|
D|---7-7-7-7-7-7-9-9-9-9-9-9------------------------------------------------|
A|---7-7-7-7-7-7-9-9-9-9-9-9------------------------------------------------|
E|---5-5-5-5-5-5-7-7-7-7-7-7------------------------------------------------|



CHORUS x 4
e|--------------------------------------------------------------------------|
B|--------------------------------------------------------------------------|
G|--------7---------9-------------------------------------------------------|
D|---7-7--7-7--9-9--9-9-----------------------------------------------------|
A|---7-7--5-7--9-9--7-9-----------------------------------------------------|
E|---5-5----5--7-7----7-----------------------------------------------------|
After the chorus the fourth time, slide into the intro.


Then to the beginning and repeat, end with the Intro played slower every time.
Tap to rate this tab
# A B C D E F G H I J K L M N O P Q R S T U V W X Y Z