Song name
# A B C D E F G H I J K L M N O P Q R S T U V W X Y Z

Nekromantix - Trick Or Treat tab

--------------------------------------------------------------------------
                Trick or Treat (Intro) - Nekromantix
--------------------------------------------------------------------------


e|--------------0-6-----------0-6--------------6-----6---/5--5-6--5---|
b|------------8-------------8-------8----8--8--8-8-------/7--7-7--7---|
G|--------7-------------7-------------7--6--6--6---6-----/5--5-5--5---|
D|------8-------------8----------------8-8--8--8---------/7--7-7--7---|
A|--------------------------------------------------------------------|
E|--------------------------------------------------------------------|


e|--------------0-6-----------0-6--------------6-----6---/5--5-6--5---|
b|--7/8-------8-------------8-------8----8--8--8-8-------/7--7-7--7---|
G|--------7-------------7-------------7--6--6--6---6-----/5--5-5--5---|
D|------8-------------8----------------8-8--8--8---------/7--7-7--7---|
A|--------------------------------------------------------------------|
E|--------------------------------------------------------------------|

Tap to rate this tab
# A B C D E F G H I J K L M N O P Q R S T U V W X Y Z