Song name
# A B C D E F G H I J K L M N O P Q R S T U V W X Y Z

Nekromantix - My Girl tab

----------------------------------------------------------------------------
			     My girl - Nekromantix
---------------------------------------------------------------------------
Tuning: standard
Key : B pentationic (nice to do ur own solos to :D )
   
 | whammy bar   |
 | vabrato down |  x 2            x 4    x4
e|-7~------------77!-|---------------|-9h11-9-9-9-11-11-11| Repeated alot
B|-9~------------99!-|-7--------5-3--|-9h11--9-9---11-11--| sometimes
G|-8~------------77!-|--7- x 2 -6-4--|--------------------| all with
D|-------------------|---9------7-5--|--------------------| vabrato
A|-------------------|---------------|--------------------|
E|-------------------|---------------|--------------------|

SOLO! till fade

|crazy slide|
e|-/7---------------/7------------------|-------------------|
B|---7h10p7-7~--------7h10p7-7~---------|----7~--7~--7~--7~-|
G|---------9--9p7-----------9--7-9-7-9~-|----7~--7~--7~--7~-|
D|---------------9~---------------------|-7-9--9~--9~--9~---|
A|--------------------------------------|-------------------|
E|--------------------------------------|-------------------|

                       | x 2 | | x 4|
e|---------------------10~-7~---7-10-------------------7/10101010-7--7-|
B|------------------------------7-10-------------------------------10--|
G|----9p7-9p7-9p7-9p7--------------------7-9^9^-9p7--------------------|
D|-7-9---9---9---9--------------------7h9----------7h9-----------------|
A|---------------------------------------------------------------------|
E|---------------------------------------------------------------------|

e|-/7---------------/7------------------|-------------------|
B|---7h10p7-7~--------7h10p7-7~---------|-------------------|
G|---------9--9p7-----------9--7-9-7-9~-|----9^7-9^7-9^7-9^-|
D|---------------9~---------------------|-7h9---------------|
A|--------------------------------------|-------------------|
E|--------------------------------------|-------------------|

I understand this may not be 100% acurate but i'd say its about 75% there so i 
welcome critosism and help :D .
have fun!
Tap to rate this tab
 
# A B C D E F G H I J K L M N O P Q R S T U V W X Y Z