Song name
# A B C D E F G H I J K L M N O P Q R S T U V W X Y Z

Nekromantix - Back From The Grave tab

Nekromantix
Back from The Grave

Standard tuning - [e A D G B E]

b = bend
h = half bend
r = release bend

Intro`:

e|----------------------------------------------------|
B|-----------------------------------6hb-6-4-6-4------|
G|-5--7b8r7-5----7b8r7-5-----7b8r7-5-------------7-5--|
D|------------5----------6----------------------------|
A|----------------------------------------------------|
E|----------------------------------------------------|


e|-----------------------------------------------|
B|--------------------------------6hb-6-4-6-4----|
G|-7b8r7-5----7b8r7-5-----7b8r7-5-------------7--|
D|---------5----------6--------------------------|
A|-----------------------------------------------|
E|-----------------------------------------------|


tabbed by Aidan Husted
Tap to rate this tab
# A B C D E F G H I J K L M N O P Q R S T U V W X Y Z