Song name
# A B C D E F G H I J K L M N O P Q R S T U V W X Y Z

Nico Vega - Bang Bang tab

Nico Vega - Bang Bang

I could only find a video of this tab from shaynegibbs on youtube so the credit 
goes to him. Hope this helps!


Intro PT 1:
|------------------------------|-----------------------------|
|------------------------------|-----------------------------|
|----------------------0-----0-|-------------------------0---|
|------5p0-5p0-----------------|------5p0-5p0-------0h5----5-|
|---------------5/7--7---5-5---|---------------5--5----------|
|--3-3-------------------------|--3-3------------------------|


PT 2:
|---------|
|---------|
|--0---0--|
|--0---0--|
|--2---7--|
|--3---8--|


PT 3:
|--------------|
|--------------|
|--12---9---7--|
|--12---9---7--|
|--10---7---5--|
|--------------|
Tap to rate this tab
 
# A B C D E F G H I J K L M N O P Q R S T U V W X Y Z