Song name
# A B C D E F G H I J K L M N O P Q R S T U V W X Y Z

30 Seconds To Mars - Revenge tab

Revenge
30 Seconds To Mars
Live Preformance
o.
Key:Ab minor
DON'T FORGET TO TUNE BOTH GUITARS DOWN 1/2 STEP

Jared Leto:
     Am     F      G      Em
Eb|--0------1------3------0-----------|
Bb|--1------1------3------0-----------|
Gb|--2------2------4------0-----------|
Db|--2------3------5------2-----------|
Ab|--0------3------5------2-----------|
Eb|--x-*----1-*----3-*----x--*--------|
(to avoid confusion, All chord names are based on what they'd be called in standard tuning)
*When Jared plays the song, you hear a deeper note being stuck while he's strumming.
You can create this effect by playing an open "low E" string and
kinda hammer-oning the next chord-
between chord changes (and also halfway between
switching chords you can sneak it in)
Intro:
               Am                   F
Ooooooh
              G                      Em
Verse 1:
    Am
One day I'll return,
            F
The chosen one, under God,
              G
The prodigal son, wreaking havoc
        Em (hold)
And yes I will get my!
Chorus 1:
             Am
       Reeeeevenge
Am           F
      Reeeeeevenge
F            G
      Reeeeeevenge
G            Em (hold)
      Reeeeeevenge-oooooouu
Interlude:
    Am                 F

     G                    Em
Verse 2:
     Am                      F
One life left to live, to forgive
                           G
Make amends, wash away my sins

Prepare for judgement
      Em
Only then will I get!
Chorus 2:
             Am
       Reeeeevenge
Am           F
      Reeeeeevenge
F            G
      Reeeeeevenge
G            Em (hold)
      Reeeeeevenge-oooooouu
Outro:
  Am
Ooooooh
   F
Oooahhhhh
  G
Whaaaaaaaaa
  Em (hold)
Woooooh       *End on Am

Tomo Milicevic:
ALSO TUNED DOWN A 1/2 STEP!

Intro
Eb|--12--------------12--------------------------------|
Bb|------12--13--10------12--13--10--------------------|
Gb|------------------------------------13--4--5--5/7---|
Db|----------------------------------------------------|
Ab|----------------------------------------------------|
Eb|----------------------------------------------------|
Verse1


Chorus
Eb|-------------------------------------------------------------------------------|
Bb|-------------------------------------------------------------------------------|
Gb|--9--5--4--------9--5--4----9--5--4--------9--5--4----9--5--4--------9--5--4---|
Db|-----------7--7----------------------7--7----------------------7--7------------|
Ab|-------------------------------------------------------------------------------|
Eb|-------------------------------------------------------------------------------|

Post Chorus
Eb|--12---------------|
Bb|------12--13--10---|
Gb|-------------------|      X6
Db|-------------------|
Ab|-------------------|
Eb|-------------------|
Then..
Eb|------------------|
Bb|--13--4---5--5/7--|
Gb|------------------|
Db|------------------|
Ab|------------------|
Eb|------------------|
Verse 2


Chorus
Eb|-------------------------------------------------------------------------------|
Bb|-------------------------------------------------------------------------------|
Gb|--9--5--4--------9--5--4----9--5--4--------9--5--4----9--5--4--------9--5--4---|
Db|-----------7--7----------------------7--7----------------------7--7------------|
Ab|-------------------------------------------------------------------------------|
Eb|-------------------------------------------------------------------------------|

Outro
Eb|--12---------------|
Bb|------12--13--10---|
Gb|-------------------|      X6
Db|-------------------|
Ab|-------------------|
Eb|-------------------|
Then..
            Am
Eb|----------------------|
Bb|----------------------|
Gb|----------------------|
Db|----------------------|
Ab|----0<-let ring-------|
Eb|----------------------|
Tap to rate this tab
# A B C D E F G H I J K L M N O P Q R S T U V W X Y Z