Song name
# A B C D E F G H I J K L M N O P Q R S T U V W X Y Z

Oar - Asshole tab

----------------------------
O.A.R.
Asshole
tabbed from 11.29.02 version
----------------------------


e-----0h2---3----3----3---|
b-----3-----3----3----3---|
b-----2-------------------|
d-----0-------------------|
a-----------3----2----1---|
E-------------------------|


----------------------------
Notes:

The bass notes that are on the a string are strummed before the rest of the chord.
----------------------------


----------------------------
Questions/Comments:
joshpwc@yahoo.com
oarsa.org
Tap to rate this tab
# A B C D E F G H I J K L M N O P Q R S T U V W X Y Z