Song name
# A B C D E F G H I J K L M N O P Q R S T U V W X Y Z

Ok Go - What To Do chords

Highlighted       Show chord diagrams
-------------------------------------------------------------------------------
			     What to Do - OK Go
-------------------------------------------------------------------------------
Tabbed by:Alex Worthy
Email:azimuth457@gmail.com

Okay so this was just requested. I looked at other tabs and I see why.
They're not 100% correct and they aren't very detailed.

Tuning:Standard, no capo.

Basically it goes like this;

         C           Em            Bb               A
Come on in, sweetie-pie! Have an apple, have some lye...
             Dm                   G                          C    G
Leave your friends, righteous and pathetic, standing at the door.

         C           Em            Bb               A
On the books, all your bets favor head-bands and cassettes,
         Dm           G          C    G
cigarettes, suffragettes, and bores.


        C       C7
What to do?
F                  Fm    Dm                                           G
Sweetheart, you'll find mediocre people do exceptional things all the time.

         C         C7         F        Fm
Oh, the ruin will do in your talented mind...
Dm                              G             G7
could've been a genius if you'd had an axe to grind.


        C    Cm7/B     Am     F
What to dooooooooooooooooo oh
        C    Cm7/B   E    Am     F
What to doooooooooooooooooooo oh

The difference with my tab is, I will explain how each chord is played.

    C  Em  Bb  A  Dm  G  C7  F  Fm  G7  Cm7/B  Am  E
e|--0---0---x--x---5--3---0--1---1---5----0-----0--0----|
B|--1---0---4--2---6--3---1--1---1---3----1-----1--0----|
G|--0---0---4--2---5--4---3--2---1---4----0-----2--1----|
D|--2---2---4--2---7--3---2--3---3---3----x-----2--2----|
A|--3---2---2--0---5--5---3--3---3---5----2-----0--2----|
E|--x---0---x--x---x--3---x--1---1---3----x-----x--0----|


************************************

| /   slide up
| \   slide down
| h   hammer-on
| p   pull-off
| ~   vibrato
| +   harmonic
| x   Mute note
| b   Bend
| pb  Pre-bend
| br  Bend release
| pbr Pre-bend release
| brb Bend release bend

************************************
Tap to rate this tab
# A B C D E F G H I J K L M N O P Q R S T U V W X Y Z