Owen - Im Always In Love tab

Artist: Owen
Album: Abandoned Bridges EP
Song: I'm Always In love
Tuning: Standard
Capo 1st Fret

Listen to the song for the correct timing

_________________________________________________________________


Riff 1

e----------------------------------|
B------3-----0---------0-----------|
G--------2------h2p0-2-------0-----|
D----0-----0-------------0h2-------|
A----------------------------------|
E---3------------------------------|

Riff 2

e-----------------------0---------------|
B-----3-----0---------3----3------------|
G-------2-----------2--------2----------|
D---0-----0----4--2------------2--------|
A---------------------------------------|
E--3------------------------------------|

 Intro:

*riff 1 (x2)*

 Verse 1:

    G                    C
    Why, I wonder, is my heart full of holes
*riff 1*
    G                           C
    And the feeling goes but my hair keeps growing
*riff 1*
    G          C
    Will I set the sun

e-----0------0------------0h2-0-------|
B-----0------1------3-----------3-----|
G-----0----1-2--------2-----------2---|
D---2-2------2----0-------------------|
A--2--2---0--0------------------------|
E-------------------------------------|
  Em      Am         Dsus2-D-Dsus2
     On a big-wheeled wagon
     Am
     I'm bragging

A-----0-2-3----------------------------

     C
     I'm always in love
*riff 1*

 Verse 2:

Same as Verse 1

 Bridge:

  Dsus2
     I don't get the connection
  C                         C-C/B-Am(Triplets: strum quickly)
     If this is only a test
  Am                     Am-C/B-C(Triplets: strum quickly)
     I hope I do my best
  C
     You know I wont forget


e--2-----2h3-2-----0--0--------------------|
B--3-3---------3---------1-0-0-0h1-0-------|
G--2---2---------2-------------------2-0---|
D--0---------------------------------------|
A---------------------3------2-----0-------|
E--------------------------------------3---| *riff*


 Verse 3:

     G                          C
     When I fold the cold in my jet-lag palm
*riff 1*
     G[Hold]                  C[Hold]
     When I soak so long I forgive my father
*riff 1*
 G          C
    Will I set the sun

e-----0------0------------0h2-0-------|
B-----0------1------3-----------3-----|
G-----0----1-2--------2-----------2---|
D---2-2------2----0-------------------|
A--2--2---0--0------------------------|
E-------------------------------------|
  Em      Am         Dsus2-D-Dsus2
     On a big-wheeled wagon
     Am
     I'm bragging

A-----0-2-3----------------------------

     C
     I'm always in love

*riff 2*

   Am                  Am-B/C-C
     It's a drag I sang
   C
     I'm always in love
   Am            Am-B/C-C
     I'm worried

e--0-----------0--------------|
B--1-----------1--------------|
G--0-----------0--------------|
D--2--0---0h2--2--------------|
A--3--2h3------3---[Hold]-----|
E-----------------------------|

   N.C              G
     I'm always in love

*G to C rhythm strumming mainly the bass of the chord until:

   G
e--0-----------0--------|
B--0-----------0--------|
G--0-----------0--------|
D--0--------0--0--------|
A--2-3--2h3----2--------|
E--3-----------3--------|
Tap to rate this tab
 
# A B C D E F G H I J K L M N O P Q R S T U V W X Y Z