Song name
# A B C D E F G H I J K L M N O P Q R S T U V W X Y Z

Papa Roach - Hollywood Whore tab

-----------------------------------------------------------------------------
                          HOLLYWOOD WHORE - PAPA ROACH
-----------------------------------------------------------------------------
Tabbed by: Daniel
E-mail: pit0004@hotmail.com

Tuning: Drop D
Tempo: Moderately = 96

First of all the reason i only tabbed the Intro and Verse is the rest of the song would 
be tabbed excatly the same way as the verson tabbed by Unknown on this site with only 
the intro and verse changed.
I Think i have tabbed the Intro and Verse significantly more correctly and how Jerry 
actually Plays it Live!
Amazing Song one of Papa Roach Best!!!

Words and music by Tobin Esperance, Jacoby Shaddix and Jerry Horton!


OKAY Y'ALL READY TO ROCK THIS B*TCH!!!

Intro:

Clean-Tone Channel:    Hold Throughout
e|---------------------------------------------------------------------------|
B|---------8--------6--------6-------6-------8-------------------------------|
G|----8---------8--------8---------8---8---7---------------------------------|
D|-10---10----9---9----8---8-----6-------5-----------------------------------|
A|---------------------------------------------------------------------------|
E|---------------------------------------------------------------------------|

Band Enters:

W/Dist:
e|------------------------------------------------------------------------|
B|--------3---3-4-3---3---3-4--------------4-----------4------------------|
G|-5-5--5---5-------5---5-----4-4--4-5-4-5---5-4-5-4-5---5----------------|
D|-5-5------------------------4-4-----------------------------------------|
A|-3-3------------------------2-2-----------------------------------------|
E|------------------------------------------------------------------------|

e|------------------------------------------------------------------------|
B|--------3---3-4-3---3---3-4--------------4-----------4------------------|
G|-5-5--5---5-------5---5-----4-4--4-5-4-5---5-4-5-4-5---5----------------|
D|-5-5------------------------4-4-----------------------------------------|
A|-3-3------------------------2-2-----------------------------------------|
E|------------------------------------------------------------------------|

VERSE:

e|------------------------------------------------------------------|
B|------------------------------------------------------------------|
G|-5-5------------X-X----X----4-4-----------------------------------|
D|-5-5------------X-X----X----4-4-----------------------------------|
A|-3-3------------X-X----X----2-2-----------------------------------|
E|------------------------------------------------------------------|

e|--------------------------------------------------------------------|
B|--------------------------------------------------------------------|
G|-5-5-----------------------4-4--------------------------------------|
D|-5-5-----------------------4-4--------------------------------------|
A|-3-3-----------------------2-2--------------------------------------|
E|--------------------------------------------------------------------|

e|------------------------------------------------------------------|
B|------------------------------------------------------------------|
G|-5-5----------------------4-4-------------------------------------|
D|-5-5----------------------4-4-------------------------------------|
A|-3-3----------------------2-2-------------------------------------|
E|------------------------------------------------------------------|

e|------------------------------------------------------------------|
B|------------------------------------------------------------------|
G|-5-5----------------------4-4-------------------------------------|
D|-5-5----------------------4-4-------------------------------------|
A|-3-3----------------------2-2-------------------------------------|
E|------------------------------------------------------------------|





Hollywood whore,
 Passed out on the floor,
 I'm sorry but the party's over.

Cocaine nose,
 And trendy clothes,
 Gotta send her to rehab.
 She found out she's got no soul,
 But it really doesn't bother her.
 White trash queen,
 American dream-
 Oh, what a role model.
 Throwing a fit,
 Making a scene,
 Like no tomorrow.

Hollywood whore,
 Passed out on the floor,
 Can't take it no more,
 I'm sorry but the party's over.
 The talk of the town,
 Is she's going down.
 I'm sorry but the party's over NOW.

Awake by noon, drunk by 4.
 Sucked up in the show biz.
 You're so lame,
You're such a bore,
 I wanna kick your teeth in.
 Plastic smile,
 To match your style-
 We can tell you got a face lift.
 You're so vain, oh so vile,
You're a number one hit.

Hollywood whore,
 Passed out on the floor,
 Can't take it no more,
 I'm sorry but the party's over.
 The talk of the town,
 Is she's going down,
 I'm sorry but the party's over.

The cameras are gone,
 And nobody screams.
 She couldn't survive her 15 minutes of fame.
 Her friends are all gone,
 She's going insane.
 She'll never survive without the money and fame.
 It's all going down the drain.

Hollywood whore,
 Passed out on the floor,
 I'm sorry but the party's over.
 The talk of the town,
 Is she's going down.
 I'm sorry but the party's over

Hollywood whore,
 Passed out on the floor,
 I'm sorry but the party's over.
 The talk of the town,
 Is she's going down,
 I'm sorry but the party's over.

Wake up!!!!!
 The party's over
[4x]
 NOW

Hahaha

Don't let the door hit ya where the good lord split ya, hunny.
 Hahaha...
Tap to rate this tab
# A B C D E F G H I J K L M N O P Q R S T U V W X Y Z