Song name
# A B C D E F G H I J K L M N O P Q R S T U V W X Y Z

Paramore - Monster tab

-------------------------------------------------------------------------------
			     Monster - Paramore
-------------------------------------------------------------------------------
Tabbed by:Wayne
Email:Redgend@hotmail.co.uk

Tuning:EADGBe

Intro:
e|---------------|     e|---------------|
B|---------------|     B|---------------|
G|-------7-------|     G|-------8-------|
D|---9-----9---9-| x3  D|---9-----9---9-|
A|-7---7-----7---|     A|-7---7-----7---|
E|---------------|     E|---------------|

e|---------------|     e|---------------|
B|---------------|     B|---------------|
G|-------7-------|     G|-------8-------|
D|---9-----9---9-| x3  D|---9---9-------|
A|-7---7-----7---|     A|-7---7-7-------|
E|---------------|     E|---------------|

Verse:
e|-------------12-----------12------------------12-----------------|
B|-------12----12---12--------------------12----12---12------10----|
G|----12----12-12------12------14------12----12-12------12------11-|
D|-14----------14-------------------14----------14-----------------| x2
A|-----------------------------------------------------------------|
E|-----------------------------------------------------------------|

Bridge:
Rhythm:
e|---------------------------------|
B|---------------------------------|
G|---------------------------------|
D|-2-2-------------2-2-2-----------|
A|-2-2-------------2-2-2-----------|
E|-0-0-------------0-0-0-----------|

Lead:
e|------12---12-----------12---12--|
B|------12---12-----------12---12--|
G|------12---12-----------12---12--|
D|------14---14-----------14---14--|
A|---------------------------------|
E|---------------------------------|

Chorus:
I Really am unsure about both parts from here on as they are pretty unclear, so if you 
have any suggestions then please comment and i will try and update it.
Rhythm:
e|-------------------------------------------|
B|-------------------------------------------|
G|----------7--5--------7--5--------7--5--7--|
D|-2--5--2--7--5--5--2--7--5--5--2--7--5--7--|
A|-2--5--2--5--3--5--2--5--3--5--2--5--3--5--|
E|-0--3--0--------3--0--------3--0-----------|

Lead:
   Em         G          Em           D
e|-----------------------------------------------------------------------|
B|---12---------12----------15-----------12------------------------------|
G|-9----9~----9----9~---/16----16~----14----14~--------------------------| x4
D|-----------------------------------------------------------------------|
A|-----------------------------------------------------------------------|
E|-----------------------------------------------------------------------|

Solo:
e|-12----10------------------------12----14----------------12----14----15----17-15|
B|----12----10--8-8-12-8-8-8-12-8-----12----15-12-13-15-12----12----12----12------|
G|--------------------------------------------------------------------------------|
D|--------------------------------------------------------------------------------|
A|--------------------------------------------------------------------------------|
E|--------------------------------------------------------------------------------|
Tap to rate this tab
 
# A B C D E F G H I J K L M N O P Q R S T U V W X Y Z