Song name
# A B C D E F G H I J K L M N O P Q R S T U V W X Y Z

Parokya Ni Edgar - Pangarap Lang Kita tab

Pangarap lang kita
by Parokya Ni Edgar
tabbed by Ferdz tobats
email (fb): tobatsdrive@yahoo.com
time: 1:45
date: march 08 2011

para toh sa mga babae sa buhay ko...na pangarap ko lang hehe, 
hi kay ms.fam, ska kay richiel,...kung may tanong msg nyo ako sa fb di nakaprivate 
un...pakihit kung nakatulong :)


CAPO 1 



INTRO:
e|--------------------|-----------------------|
B|-------------3--0---|---12------------------|
G|------0-------------|------12~------9~------|
D|----2---2-0---------|----------12-----------|
A|--3-----------------|-----------------------|
E|----------------3---|-----------------------|

E|----------------0---|---2h3-2---------------|
B|-------------3------|----------3------------|
G|------0-------------|-----------------------|
D|----2---2-0---------|-----------------------|
A|--3-----------------|-----------------------|
E|----------------3---|-----------------------|

E|-------------------------------------------|
B|-------------3-----------------------------|
G|------0-----------0---0---0----------------|
D|----2---2-0------------------0-------------|
A|--3----------------------------------------|
E|----------------3---2---0------------------|

e|---------------------------|
B|-------------3-------------|
G|------0----------0---------|
D|----2---2-0----0-----------|
A|--3------------------------|
E|-----------------3---------|

VERSE 1:
e|--------------------|
B|-------------3--0---|
G|------0-------------|3X
D|----2---2-0---------|
A|--3-----------------|
E|----------------3---|

e|--------------------|-3---|
B|-------------3------|---3-|
G|------0---------0---|-----|
D|----2---2-0---------|-----|
A|--3-----------------|-----|
E|----------------3---|-----|


C D G
Mabuti pa sa lotto,
C D G
may pag-asang manalo.
C D G
Di tulad sa'yo,
C D G
Imposible.

e|--------------------|
B|-------------3--0---|
G|------0-------------|2X
D|----2---2-0---------|
A|--3-----------------|
E|----------------3---|

E|-------------------------------------------|
B|-------------3-----------------------------|
G|------0-----------0---0---0----------------|
D|----2---2-0------------------0-------------|
A|--3----------------------------------------|
E|----------------3---2---0------------------|

e|----------------3---|
B|-------------3--3---|
G|------0-------------|
D|----2---2-0---------|
A|--3-------------2---|
E|----------------3---|

C D G
Prinsesa ka,
C D G
ako'y dukha..
C D G (F#)(E)(D)
Sa TV lang naman   kasi
   C D G 
may mangyayari

CHORUS: C D G 4X
e|------------3--3--3-3-------------------3-----3--0---|
B|--3-3-3-3-3--3-3--3-3---------------3---3---3-3--0---|
G|----2-----2---------2----0---0----0-2---0---2----2---|
D|--2-0---2-0-------2-0---------------0---2--0-----2---|
A|--3---2-3------2--3-------------------3-------2--0---|
E|------3--------3-------3---2---0--------------3------|


C D G 
At kahit mahal kita,
C D G 
wala akong magagawa..
C D G (F#)(E)(D)
Tanggap ko oh, aking sinta..
C D G                A
Pangarap lang kita.. 


Heppy Sy

interlude:

e|-------------------------|
B|-------------------------|
G|------2-----2-2--1h2-1---|
D|----4---4-2------------2-|
A|--5----------------------|
E|-------------------------|

e|-------------------------|
B|---------------5---------|
G|------2-----2-----2------|
D|----4---4-2--------------|
A|--5----------------------|
E|-------------------------|


verse:
e|-------------------------|
B|------------------5------|
G|------2-----2---2---2----|
D|----4---4-2---2-2--------|
A|--5-------------0--------|
E|-------------------------|

e|-------------------------|
B|----------------0--------|
G|------2-----2---2---2----|
D|----4---4-2---2-2--2-----|
A|--5-------------0--------|
E|-------------------------|

e|--------------0----------|
B|--------------0----------|
G|------2---2---2----------|
D|----4---4---2-2----------| 2X
A|--5-----------0----------|
E|-------------------------|


D E A 
Ang hirap maging babae,
D E A 
kung torpe U lalake.
D E A 
Kahit may gusto ka,
D E A 
di mo masabi..


e|---------------------|--------------|
B|---------------------|---5h7--5h7---|
G|------2-----2-1------|--------------|
D|----4---4-2------2---|--------------|
A|--5------------------|--------------|
E|---------------------|--------------|


e|---------------------|--------9-----|
B|---------------------|-----10-------|
G|------2-----2-1------|---9----------|
D|----4---4-2------2---|--------------|
A|--5------------------|--------------|
E|---------------------|--------------|

e|---------------------------------|
B|---------------------------------|
G|------2-----2-1------------------|
D|----4---4-2----------------------|
A|--5------------------------------|
E|-----------------5--4--2--0------|

e|------------------0--------------|
B|------------------0--------------|
G|------2-----2-----2--------------|
D|----4---4-2----2--2--------------|
A|--5---------------0--------------|
E|---------------------------------|




CHORUS:
D E A 
At kahit mahal kita

D E A 
wala akong magagawa.

D E A (G#)(F#)(E)
Tanggap ko, oh aking sinta..

D E A
Pangarap lang kita..


INTERLUDE: D E A D E F# G#

e|---------------------|------9--
B|---------------------|---10----
G|------2-----2----2---|-9-------
D|----4---4-2----2-----|---------
A|--5------------------|---------
E|---------------------|---------

e|--------2s4-4s6s8---------|
B|--------3s5-5s7s9---------|
G|------2-2s4-4s6s8---------|
D|----4---------------------|
A|--5-----------------------|
E|--------------------------|

Chorus:

C# Db G#
At kahit mahal kita,
C# Db G#
wala akong magagawa.
C# Db G# (G)(F)(Db)
Tanggap ko oh aking sinta,
C# Db G#
Pangarap lang kita..


happe sy

C# Db G#
Sui ran wo hen ai ni

C# Db G#
Wo mei ban fa gao su ni 

C# Db G# (G)(F)(Db)
Wo xin zhong yi you qin ai 

C# Db G#
Danshi shi wo de ai 


Chorus:

strum lang
e|---4---3--8-----|
B|---4---4--9-----|
G|---7---3--8-----|
D|---7---x--x-----|
A|---4------------|
E|----------------|


C# Db G#
At kahit mahal kita,
C# Db G#
wala akong magagawa.
C# Db G# (G)(F)(Db)
Tanggap ko oh aking sinta,
C# Db G#
Pangarap lang kita.


C# Db G#
Pangarap lang kita.
C# Db G#
Pangarap lang kita.

ending: G#M
e|--4-|---4------4---------|
B|--4-|-----4--------------|
G|--5-|-5-----5-----(3X)---|
D|--7-|--------------------|
A|--7-|--------------------|
E|--4-|--------------------|








Tap to rate this tab
 
# A B C D E F G H I J K L M N O P Q R S T U V W X Y Z