Song name
# A B C D E F G H I J K L M N O P Q R S T U V W X Y Z

Pepper - No Control tab

This is my first tab so bare with me, but its all gravy.


Verse:
Reggae style
      E         E7
------7---------7---------------------------------|
------8---------8---------------------------------|
------9-x7-then-7-<-strum-fast-----REPEAT---------|
------9---------9---------------------------------|
------7---------7---------------------------------|
------7---------7---------------------------------|

Chorus:                   End of Chorus: Hard down strums

  E    D    Am   G         G     
   F
--7----5----5----3---------3-----2-----1---------------------|
--8----7----5----3---------3-----2-----1---------------------|
--9----7----5----4--x4-----4-x4--3-x2--2-x2------------------|
--9----7----7----5---------5-----4-----3---------------------|
--7----5----7----5---------5-----4-----3---------------------|
--7----5----5----3---------3-----2-----1---------------------|

Simple song hope you enjoy
A-Mas
Tap to rate this tab
 
# A B C D E F G H I J K L M N O P Q R S T U V W X Y Z