Song name
# A B C D E F G H I J K L M N O P Q R S T U V W X Y Z

Philadelphia Grand Jury - Ready To Roll tab

Ready to Roll - Philadelpia Grand Jury

www.myspace.com/philadelphiagrandjury

It's ok, it's tabbed by Alex Lamberton :p

Main Riff:

----------------------------------------------------------------------------|
----------------------------------------------------------------------------|
----------------------------------------------------------------------------|
-----------------------------------------------------------7-7-7-9-9--------|
-------------------------------10--------------------------7-7-7-9-9--------|
-12-12-10-12-12-10-12-12-10-12----12-10--12-12-10-12-12-10-5-5-5-7-7--------|

The other bit is something like this, but the exact strumming with the finger mutes 
vary between repetitions i think (I'm doing this at work btw) which is WAY too much effort 
tab out:

-555-7-xxx-xxx-x-xx----------------------------------|
-555-7-xxx-xxx-x-xx----------------------------------|
-666-8-xxx-xxx-x-xx----------------------------------|
-777-9-xxx-xxx-x-xx----------------------------------|
-777-9-xxx-xxx-x-xx----------------------------------|
-555-7-xxx-xxx-x-xx----------------------------------|

-555-7-xx-7-xxx-xxx-xx---------------------------------|
-555-7-xx-9-xxx-xxx-xx---------------------------------|
-666-8-xx-9-xxx-xxx-xx---------------------------------|
-777-9-xx-9-xxx-xxx-xx---------------------------------|
-777-9-xx-7-xxx-xxx-xx---------------------------------|
-555-7-xx---xxx-xxx-xx---------------------------------|
Tap to rate this tab
# A B C D E F G H I J K L M N O P Q R S T U V W X Y Z