Song name
# A B C D E F G H I J K L M N O P Q R S T U V W X Y Z

Pineapple Thief - Boxing Day tab

Song: Boxing Day
Artist: The Pineapple Thief
Album: Little Man
Tabbed by: Tyler Treat (ttreat31)
Email: ttreat31@yahoo.com

Tuning: Standard (EADGBe)
Chord names and lyrics indicated above tab.
Strumming pattern indicated above first chord. It repeats through entire song.

INTRO

    ^  ^  v  ^  v 
    Emadd9         Em             Cadd9          C
e|--2--2--2--2--2--3--3--3--3--3--x--x--x--x--x--0--0--0--0--0--|
B|--0--0--0--0--0--0--0--0--0--0--3--3--3--3--3--5--5--5--5--5--|
G|--0--0--0--0--0--0--0--0--0--0--0--0--0--0--0--0--0--0--0--0--|
D|--2--2--2--2--2--2--2--2--2--2--2--2--2--2--2--2--2--2--2--2--|
A|--2--2--2--2--2--2--2--2--2--2--3--3--3--3--3--3--3--3--3--3--|
E|--x--x--x--x--x--x--x--x--x--x--x--x--x--x--x--x--x--x--x--x--|

    G                             D
e|--x--x--x--x--x--x--x--x--x--x--x--x--x--x--x--x--x--x--x--x--|
B|--3--3--3--3--3--3--3--3--3--3--3--3--3--3--3--3--3--3--3--3-o|
G|--0--0--0--0--0--0--0--0--0--0--2--2--2--2--2--2--2--2--2--2--| play 2 times
D|--0--0--0--0--0--0--0--0--0--0--0--0--0--0--0--0--0--0--0--0--|
A|--2--2--2--2--2--2--2--2--2--2--0--0--0--0--0--0--0--0--0--0-o|
E|--3--3--3--3--3--3--3--3--3--3--2--2--2--2--2--2--2--2--2--2--|

    Am
e|--0--0--0--0--0--0--0--0--0--0--0--0--0--0--0--0--0--0--0--0--|
B|--1--1--1--1--1--1--1--1--1--1--1--1--1--1--1--1--1--1--1--1--|
G|--2--2--2--2--2--2--2--2--2--2--2--2--2--2--2--2--2--2--2--2--|
D|--2--2--2--2--2--2--2--2--2--2--2--2--2--2--2--2--2--2--2--2--|
A|--0--0--0--0--0--0--0--0--0--0--0--0--0--0--0--0--0--0--0--0--|
E|--0--0--0--0--0--0--0--0--0--0--0--0--0--0--0--0--0--0--0--0--|

VERSE 1

    Em                            C
           Don't  look  for  the  sunrise
e|--0--0--0--0--0--0--0--0--0--0--0--0--0--0--0--0--0--0--0--0--|
B|--0--0--0--0--0--0--0--0--0--0--1--1--1--1--1--1--1--1--1--1--|
G|--0--0--0--0--0--0--0--0--0--0--0--0--0--0--0--0--0--0--0--0--|
D|--2--2--2--2--2--2--2--2--2--2--2--2--2--2--2--2--2--2--2--2--|
A|--2--2--2--2--2--2--2--2--2--2--3--3--3--3--3--3--3--3--3--3--|
E|--0--0--0--0--0--0--0--0--0--0--x--x--x--x--x--x--x--x--x--x--|

                                  Dsus2
                                  Anytime
e|--0--0--0--0--0--0--0--0--0--0--0--0--0--0--0--0--0--0--0--0--|
B|--1--1--1--1--1--1--1--1--1--1--3--3--3--3--3--3--3--3--3--3--|
G|--0--0--0--0--0--0--0--0--0--0--2--2--2--2--2--2--2--2--2--2--|
D|--2--2--2--2--2--2--2--2--2--2--0--0--0--0--0--0--0--0--0--0--|
A|--3--3--3--3--3--3--3--3--3--3--0--0--0--0--0--0--0--0--0--0--|
E|--x--x--x--x--x--x--x--x--x--x--x--x--x--x--x--x--x--x--x--x--|

e|--0--0--0--0--0--0--0--0--0--0--------------------------------|
B|--3--3--3--3--3--3--3--3--3--3--------------------------------|
G|--2--2--2--2--2--2--2--2--2--2--------------------------------|
D|--0--0--0--0--0--0--0--0--0--0--------------------------------|
A|--0--0--0--0--0--0--0--0--0--0--------------------------------|
E|--x--x--x--x--x--x--x--x--x--x--------------------------------|

    Em                            C
           Don't  look  for  the  sunrise
e|--0--0--0--0--0--0--0--0--0--0--0--0--0--0--0--0--0--0--0--0--|
B|--0--0--0--0--0--0--0--0--0--0--1--1--1--1--1--1--1--1--1--1--|
G|--0--0--0--0--0--0--0--0--0--0--0--0--0--0--0--0--0--0--0--0--|
D|--2--2--2--2--2--2--2--2--2--2--2--2--2--2--2--2--2--2--2--2--|
A|--2--2--2--2--2--2--2--2--2--2--3--3--3--3--3--3--3--3--3--3--|
E|--0--0--0--0--0--0--0--0--0--0--x--x--x--x--x--x--x--x--x--x--|

                                  Dsus2
                                  Anytime
e|--0--0--0--0--0--0--0--0--0--0--0--0--0--0--0--0--0--0--0--0--|
B|--1--1--1--1--1--1--1--1--1--1--3--3--3--3--3--3--3--3--3--3--|
G|--0--0--0--0--0--0--0--0--0--0--2--2--2--2--2--2--2--2--2--2--|
D|--2--2--2--2--2--2--2--2--2--2--0--0--0--0--0--0--0--0--0--0--|
A|--3--3--3--3--3--3--3--3--3--3--0--0--0--0--0--0--0--0--0--0--|
E|--x--x--x--x--x--x--x--x--x--x--x--x--x--x--x--x--x--x--x--x--|
                   
                                  C
                   Soon
e|--0--0--0--0--0--0--0--0--0--0--0--0--0--0--0--0--0--0--0--0--|
B|--3--3--3--3--3--3--3--3--3--3--1--1--1--1--1--1--1--1--1--1--|
G|--2--2--2--2--2--2--2--2--2--2--0--0--0--0--0--0--0--0--0--0--|
D|--0--0--0--0--0--0--0--0--0--0--2--2--2--2--2--2--2--2--2--2--|
A|--0--0--0--0--0--0--0--0--0--0--3--3--3--3--3--3--3--3--3--3--|
E|--x--x--x--x--x--x--x--x--x--x--x--x--x--x--x--x--x--x--x--x--|

CHORUS
                                  Emadd9         Em
                            I     hold           you
e|--0--0--0--0--0--0--0--0--0--0--2--2--2--2--2--3--3--3--3--3--|
B|--1--1--1--1--1--1--1--1--1--1--0--0--0--0--0--0--0--0--0--0--|
G|--0--0--0--0--0--0--0--0--0--0--0--0--0--0--0--0--0--0--0--0--|
D|--2--2--2--2--2--2--2--2--2--2--2--2--2--2--2--2--2--2--2--2--|
A|--3--3--3--3--3--3--3--3--3--3--2--2--2--2--2--2--2--2--2--2--|
E|--x--x--x--x--x--x--x--x--x--x--x--x--x--x--x--x--x--x--x--x--|

    Cadd9          C              G
    tight    -     er             every
e|--x--x--x--x--x--0--0--0--0--0--x--x--x--x--x--x--x--x--x--x--|
B|--3--3--3--3--3--5--5--5--5--5--3--3--3--3--3--3--3--3--3--3--|
G|--0--0--0--0--0--0--0--0--0--0--0--0--0--0--0--0--0--0--0--0--|
D|--2--2--2--2--2--2--2--2--2--2--0--0--0--0--0--0--0--0--0--0--|
A|--3--3--3--3--3--3--3--3--3--3--2--2--2--2--2--2--2--2--2--2--|
E|--x--x--x--x--x--x--x--x--x--x--3--3--3--3--3--3--3--3--3--3--|

    D                             Emadd9         Em
    night                  and I  ne      -      ver
e|--x--x--x--x--x--x--x--x--x--x--2--2--2--2--2--3--3--3--3--3--|
B|--3--3--3--3--3--3--3--3--3--3--0--0--0--0--0--0--0--0--0--0--|
G|--2--2--2--2--2--2--2--2--2--2--0--0--0--0--0--0--0--0--0--0--|
D|--0--0--0--0--0--0--0--0--0--0--2--2--2--2--2--2--2--2--2--2--|
A|--0--0--0--0--0--0--0--0--0--0--2--2--2--2--2--2--2--2--2--2--|
E|--2--2--2--2--2--2--2--2--2--2--x--x--x--x--x--x--x--x--x--x--|

    Cadd9          C              G
    let            you            out                     of     
e|--x--x--x--x--x--0--0--0--0--0--x--x--x--x--x--x--x--x--x--x--|
B|--3--3--3--3--3--5--5--5--5--5--3--3--3--3--3--3--3--3--3--3--|
G|--0--0--0--0--0--0--0--0--0--0--0--0--0--0--0--0--0--0--0--0--|
D|--2--2--2--2--2--2--2--2--2--2--0--0--0--0--0--0--0--0--0--0--|
A|--3--3--3--3--3--3--3--3--3--3--2--2--2--2--2--2--2--2--2--2--|
E|--x--x--x--x--x--x--x--x--x--x--3--3--3--3--3--3--3--3--3--3--|

    D                             Am
    sight                in your  whole life
e|--x--x--x--x--x--x--x--x--x--x--0--0--0--0--0--0--0--0--0--0--|
B|--3--3--3--3--3--3--3--3--3--3--1--1--1--1--1--1--1--1--1--1--|
G|--2--2--2--2--2--2--2--2--2--2--2--2--2--2--2--2--2--2--2--2--|
D|--0--0--0--0--0--0--0--0--0--0--2--2--2--2--2--2--2--2--2--2--|
A|--0--0--0--0--0--0--0--0--0--0--0--0--0--0--0--0--0--0--0--0--|
E|--2--2--2--2--2--2--2--2--2--2--0--0--0--0--0--0--0--0--0--0--|


             not  once  in  your  whole life
e|--0--0--0--0--0--0--0--0--0--0--0--0--0--0--0--0--0--0--0--0--|
B|--1--1--1--1--1--1--1--1--1--1--1--1--1--1--1--1--1--1--1--1--|
G|--2--2--2--2--2--2--2--2--2--2--2--2--2--2--2--2--2--2--2--2--|
D|--2--2--2--2--2--2--2--2--2--2--2--2--2--2--2--2--2--2--2--2--|
A|--0--0--0--0--0--0--0--0--0--0--0--0--0--0--0--0--0--0--0--0--|
E|--0--0--0--0--0--0--0--0--0--0--0--0--0--0--0--0--0--0--0--0--|

             not  once  in  your  whole life
e|--0--0--0--0--0--0--0--0--0--0--0--0--0--0--0--0--0--0--0--0--|
B|--1--1--1--1--1--1--1--1--1--1--1--1--1--1--1--1--1--1--1--1--|
G|--2--2--2--2--2--2--2--2--2--2--2--2--2--2--2--2--2--2--2--2--|
D|--2--2--2--2--2--2--2--2--2--2--2--2--2--2--2--2--2--2--2--2--|
A|--0--0--0--0--0--0--0--0--0--0--0--0--0--0--0--0--0--0--0--0--|
E|--0--0--0--0--0--0--0--0--0--0--0--0--0--0--0--0--0--0--0--0--|

e|--0--0--0--0--0--0--0--0--0--0--0--0--0--0--0--0--0--0--0--0--|
B|--1--1--1--1--1--1--1--1--1--1--1--1--1--1--1--1--1--1--1--1--|
G|--2--2--2--2--2--2--2--2--2--2--2--2--2--2--2--2--2--2--2--2--|
D|--2--2--2--2--2--2--2--2--2--2--2--2--2--2--2--2--2--2--2--2--|
A|--0--0--0--0--0--0--0--0--0--0--0--0--0--0--0--0--0--0--0--0--|
E|--0--0--0--0--0--0--0--0--0--0--0--0--0--0--0--0--0--0--0--0--|

VERSE 2

    Em                            C
           Don't  look  to  the   city
e|--0--0--0--0--0--0--0--0--0--0--0--0--0--0--0--0--0--0--0--0--|
B|--0--0--0--0--0--0--0--0--0--0--1--1--1--1--1--1--1--1--1--1--|
G|--0--0--0--0--0--0--0--0--0--0--0--0--0--0--0--0--0--0--0--0--|
D|--2--2--2--2--2--2--2--2--2--2--2--2--2--2--2--2--2--2--2--2--|
A|--2--2--2--2--2--2--2--2--2--2--3--3--3--3--3--3--3--3--3--3--|
E|--0--0--0--0--0--0--0--0--0--0--x--x--x--x--x--x--x--x--x--x--|

                                  Dsus2
                                  Anytime
e|--0--0--0--0--0--0--0--0--0--0--0--0--0--0--0--0--0--0--0--0--|
B|--1--1--1--1--1--1--1--1--1--1--3--3--3--3--3--3--3--3--3--3--|
G|--0--0--0--0--0--0--0--0--0--0--2--2--2--2--2--2--2--2--2--2--|
D|--2--2--2--2--2--2--2--2--2--2--0--0--0--0--0--0--0--0--0--0--|
A|--3--3--3--3--3--3--3--3--3--3--0--0--0--0--0--0--0--0--0--0--|
E|--x--x--x--x--x--x--x--x--x--x--x--x--x--x--x--x--x--x--x--x--|

e|--0--0--0--0--0--0--0--0--0--0--------------------------------|
B|--3--3--3--3--3--3--3--3--3--3--------------------------------|
G|--2--2--2--2--2--2--2--2--2--2--------------------------------|
D|--0--0--0--0--0--0--0--0--0--0--------------------------------|
A|--0--0--0--0--0--0--0--0--0--0--------------------------------|
E|--x--x--x--x--x--x--x--x--x--x--------------------------------|

    Em                            C
           Don't  run  to   the   city
e|--0--0--0--0--0--0--0--0--0--0--0--0--0--0--0--0--0--0--0--0--|
B|--0--0--0--0--0--0--0--0--0--0--1--1--1--1--1--1--1--1--1--1--|
G|--0--0--0--0--0--0--0--0--0--0--0--0--0--0--0--0--0--0--0--0--|
D|--2--2--2--2--2--2--2--2--2--2--2--2--2--2--2--2--2--2--2--2--|
A|--2--2--2--2--2--2--2--2--2--2--3--3--3--3--3--3--3--3--3--3--|
E|--0--0--0--0--0--0--0--0--0--0--x--x--x--x--x--x--x--x--x--x--|

                                  Dsus2
                                  Anytime
e|--0--0--0--0--0--0--0--0--0--0--0--0--0--0--0--0--0--0--0--0--|
B|--1--1--1--1--1--1--1--1--1--1--3--3--3--3--3--3--3--3--3--3--|
G|--0--0--0--0--0--0--0--0--0--0--2--2--2--2--2--2--2--2--2--2--|
D|--2--2--2--2--2--2--2--2--2--2--0--0--0--0--0--0--0--0--0--0--|
A|--3--3--3--3--3--3--3--3--3--3--0--0--0--0--0--0--0--0--0--0--|
E|--x--x--x--x--x--x--x--x--x--x--x--x--x--x--x--x--x--x--x--x--|
                   
                                  C
                   Soon
e|--0--0--0--0--0--0--0--0--0--0--0--0--0--0--0--0--0--0--0--0--|
B|--3--3--3--3--3--3--3--3--3--3--1--1--1--1--1--1--1--1--1--1--|
G|--2--2--2--2--2--2--2--2--2--2--0--0--0--0--0--0--0--0--0--0--|
D|--0--0--0--0--0--0--0--0--0--0--2--2--2--2--2--2--2--2--2--2--|
A|--0--0--0--0--0--0--0--0--0--0--3--3--3--3--3--3--3--3--3--3--|
E|--x--x--x--x--x--x--x--x--x--x--x--x--x--x--x--x--x--x--x--x--|

CHORUS

                                  Emadd9         Em
                            I     hold           you
e|--0--0--0--0--0--0--0--0--0--0--2--2--2--2--2--3--3--3--3--3--|
B|--1--1--1--1--1--1--1--1--1--1--0--0--0--0--0--0--0--0--0--0--|
G|--0--0--0--0--0--0--0--0--0--0--0--0--0--0--0--0--0--0--0--0--|
D|--2--2--2--2--2--2--2--2--2--2--2--2--2--2--2--2--2--2--2--2--|
A|--3--3--3--3--3--3--3--3--3--3--2--2--2--2--2--2--2--2--2--2--|
E|--x--x--x--x--x--x--x--x--x--x--x--x--x--x--x--x--x--x--x--x--|

    Cadd9          C              G
    tight    -     er             every
e|--x--x--x--x--x--0--0--0--0--0--x--x--x--x--x--x--x--x--x--x--|
B|--3--3--3--3--3--5--5--5--5--5--3--3--3--3--3--3--3--3--3--3--|
G|--0--0--0--0--0--0--0--0--0--0--0--0--0--0--0--0--0--0--0--0--|
D|--2--2--2--2--2--2--2--2--2--2--0--0--0--0--0--0--0--0--0--0--|
A|--3--3--3--3--3--3--3--3--3--3--2--2--2--2--2--2--2--2--2--2--|
E|--x--x--x--x--x--x--x--x--x--x--3--3--3--3--3--3--3--3--3--3--|

    D                             Emadd9         Em
    night                  and I  ne      -      ver
e|--x--x--x--x--x--x--x--x--x--x--2--2--2--2--2--3--3--3--3--3--|
B|--3--3--3--3--3--3--3--3--3--3--0--0--0--0--0--0--0--0--0--0--|
G|--2--2--2--2--2--2--2--2--2--2--0--0--0--0--0--0--0--0--0--0--|
D|--0--0--0--0--0--0--0--0--0--0--2--2--2--2--2--2--2--2--2--2--|
A|--0--0--0--0--0--0--0--0--0--0--2--2--2--2--2--2--2--2--2--2--|
E|--2--2--2--2--2--2--2--2--2--2--x--x--x--x--x--x--x--x--x--x--|

    Cadd9          C              G
    let            you            out                     of     
e|--x--x--x--x--x--0--0--0--0--0--x--x--x--x--x--x--x--x--x--x--|
B|--3--3--3--3--3--5--5--5--5--5--3--3--3--3--3--3--3--3--3--3--|
G|--0--0--0--0--0--0--0--0--0--0--0--0--0--0--0--0--0--0--0--0--|
D|--2--2--2--2--2--2--2--2--2--2--0--0--0--0--0--0--0--0--0--0--|
A|--3--3--3--3--3--3--3--3--3--3--2--2--2--2--2--2--2--2--2--2--|
E|--x--x--x--x--x--x--x--x--x--x--3--3--3--3--3--3--3--3--3--3--|

    D                             Am
    sight                in your  whole life
e|--x--x--x--x--x--x--x--x--x--x--0--0--0--0--0--0--0--0--0--0--|
B|--3--3--3--3--3--3--3--3--3--3--1--1--1--1--1--1--1--1--1--1--|
G|--2--2--2--2--2--2--2--2--2--2--2--2--2--2--2--2--2--2--2--2--|
D|--0--0--0--0--0--0--0--0--0--0--2--2--2--2--2--2--2--2--2--2--|
A|--0--0--0--0--0--0--0--0--0--0--0--0--0--0--0--0--0--0--0--0--|
E|--2--2--2--2--2--2--2--2--2--2--0--0--0--0--0--0--0--0--0--0--|


             not  once  in  your  whole life
e|--0--0--0--0--0--0--0--0--0--0--0--0--0--0--0--0--0--0--0--0--|
B|--1--1--1--1--1--1--1--1--1--1--1--1--1--1--1--1--1--1--1--1--|
G|--2--2--2--2--2--2--2--2--2--2--2--2--2--2--2--2--2--2--2--2--|
D|--2--2--2--2--2--2--2--2--2--2--2--2--2--2--2--2--2--2--2--2--|
A|--0--0--0--0--0--0--0--0--0--0--0--0--0--0--0--0--0--0--0--0--|
E|--0--0--0--0--0--0--0--0--0--0--0--0--0--0--0--0--0--0--0--0--|

             not  once  in  your life
e|--0--0--0--0--0--0--0--0--0--0--0--0--0--0--0--0--0--0--0--0--|
B|--1--1--1--1--1--1--1--1--1--1--1--1--1--1--1--1--1--1--1--1--|
G|--2--2--2--2--2--2--2--2--2--2--2--2--2--2--2--2--2--2--2--2--|
D|--2--2--2--2--2--2--2--2--2--2--2--2--2--2--2--2--2--2--2--2--|
A|--0--0--0--0--0--0--0--0--0--0--0--0--0--0--0--0--0--0--0--0--|
E|--0--0--0--0--0--0--0--0--0--0--0--0--0--0--0--0--0--0--0--0--|

e|--0--0--0--0--0--0--0--0--0--0--0--0--0--0--0--0--0--0--0--0--|
B|--1--1--1--1--1--1--1--1--1--1--1--1--1--1--1--1--1--1--1--1--|
G|--2--2--2--2--2--2--2--2--2--2--2--2--2--2--2--2--2--2--2--2--|
D|--2--2--2--2--2--2--2--2--2--2--2--2--2--2--2--2--2--2--2--2--|
A|--0--0--0--0--0--0--0--0--0--0--0--0--0--0--0--0--0--0--0--0--|
E|--0--0--0--0--0--0--0--0--0--0--0--0--0--0--0--0--0--0--0--0--|

VIOLIN INSTRUMENTAL

    Em                            C
e|--0--0--0--0--0--0--0--0--0--0--0--0--0--0--0--0--0--0--0--0--|
B|--0--0--0--0--0--0--0--0--0--0--1--1--1--1--1--1--1--1--1--1--|
G|--0--0--0--0--0--0--0--0--0--0--0--0--0--0--0--0--0--0--0--0--|
D|--2--2--2--2--2--2--2--2--2--2--2--2--2--2--2--2--2--2--2--2--|
A|--2--2--2--2--2--2--2--2--2--2--3--3--3--3--3--3--3--3--3--3--|
E|--0--0--0--0--0--0--0--0--0--0--x--x--x--x--x--x--x--x--x--x--|

                                  Dsus2
e|--0--0--0--0--0--0--0--0--0--0--0--0--0--0--0--0--0--0--0--0--|
B|--1--1--1--1--1--1--1--1--1--1--3--3--3--3--3--3--3--3--3--3--|
G|--0--0--0--0--0--0--0--0--0--0--2--2--2--2--2--2--2--2--2--2--|
D|--2--2--2--2--2--2--2--2--2--2--0--0--0--0--0--0--0--0--0--0--|
A|--3--3--3--3--3--3--3--3--3--3--0--0--0--0--0--0--0--0--0--0--|
E|--x--x--x--x--x--x--x--x--x--x--x--x--x--x--x--x--x--x--x--x--|

e|--0--0--0--0--0--0--0--0--0--0--------------------------------|
B|--3--3--3--3--3--3--3--3--3--3--------------------------------|
G|--2--2--2--2--2--2--2--2--2--2--------------------------------|
D|--0--0--0--0--0--0--0--0--0--0--------------------------------|
A|--0--0--0--0--0--0--0--0--0--0--------------------------------|
E|--x--x--x--x--x--x--x--x--x--x--------------------------------|

    Em                            C
e|--0--0--0--0--0--0--0--0--0--0--0--0--0--0--0--0--0--0--0--0--|
B|--0--0--0--0--0--0--0--0--0--0--1--1--1--1--1--1--1--1--1--1--|
G|--0--0--0--0--0--0--0--0--0--0--0--0--0--0--0--0--0--0--0--0--|
D|--2--2--2--2--2--2--2--2--2--2--2--2--2--2--2--2--2--2--2--2--|
A|--2--2--2--2--2--2--2--2--2--2--3--3--3--3--3--3--3--3--3--3--|
E|--0--0--0--0--0--0--0--0--0--0--x--x--x--x--x--x--x--x--x--x--|

                                  Dsus2
e|--0--0--0--0--0--0--0--0--0--0--0--0--0--0--0--0--0--0--0--0--|
B|--1--1--1--1--1--1--1--1--1--1--3--3--3--3--3--3--3--3--3--3--|
G|--0--0--0--0--0--0--0--0--0--0--2--2--2--2--2--2--2--2--2--2--|
D|--2--2--2--2--2--2--2--2--2--2--0--0--0--0--0--0--0--0--0--0--|
A|--3--3--3--3--3--3--3--3--3--3--0--0--0--0--0--0--0--0--0--0--|
E|--x--x--x--x--x--x--x--x--x--x--x--x--x--x--x--x--x--x--x--x--|
                   
                                  C
e|--0--0--0--0--0--0--0--0--0--0--0--0--0--0--0--0--0--0--0--0--|
B|--3--3--3--3--3--3--3--3--3--3--1--1--1--1--1--1--1--1--1--1--|
G|--2--2--2--2--2--2--2--2--2--2--0--0--0--0--0--0--0--0--0--0--|
D|--0--0--0--0--0--0--0--0--0--0--2--2--2--2--2--2--2--2--2--2--|
A|--0--0--0--0--0--0--0--0--0--0--3--3--3--3--3--3--3--3--3--3--|
E|--x--x--x--x--x--x--x--x--x--x--x--x--x--x--x--x--x--x--x--x--|

CHORUS
                                     Emadd9         Em
                               I     hold           you
e|--0--0--0--0--0--0--0--0--0--0--|--2--2--2--2--2--3--3--3--3--3--|
B|--1--1--1--1--1--1--1--1--1--1--|o-0--0--0--0--0--0--0--0--0--0--|
G|--0--0--0--0--0--0--0--0--0--0--|--0--0--0--0--0--0--0--0--0--0--|
D|--2--2--2--2--2--2--2--2--2--2--|--2--2--2--2--2--2--2--2--2--2--|
A|--3--3--3--3--3--3--3--3--3--3--|o-2--2--2--2--2--2--2--2--2--2--|
E|--x--x--x--x--x--x--x--x--x--x--|--x--x--x--x--x--x--x--x--x--x--|

    Cadd9          C              G
    tight    -     er             every
e|--x--x--x--x--x--0--0--0--0--0--x--x--x--x--x--x--x--x--x--x--|
B|--3--3--3--3--3--5--5--5--5--5--3--3--3--3--3--3--3--3--3--3--|
G|--0--0--0--0--0--0--0--0--0--0--0--0--0--0--0--0--0--0--0--0--|
D|--2--2--2--2--2--2--2--2--2--2--0--0--0--0--0--0--0--0--0--0--|
A|--3--3--3--3--3--3--3--3--3--3--2--2--2--2--2--2--2--2--2--2--|
E|--x--x--x--x--x--x--x--x--x--x--3--3--3--3--3--3--3--3--3--3--|

    D                             Emadd9         Em
    night                  and I  ne      -      ver
e|--x--x--x--x--x--x--x--x--x--x--2--2--2--2--2--3--3--3--3--3--|
B|--3--3--3--3--3--3--3--3--3--3--0--0--0--0--0--0--0--0--0--0--|
G|--2--2--2--2--2--2--2--2--2--2--0--0--0--0--0--0--0--0--0--0--|
D|--0--0--0--0--0--0--0--0--0--0--2--2--2--2--2--2--2--2--2--2--|
A|--0--0--0--0--0--0--0--0--0--0--2--2--2--2--2--2--2--2--2--2--|
E|--2--2--2--2--2--2--2--2--2--2--x--x--x--x--x--x--x--x--x--x--|

    Cadd9          C              G
    let            you            out                     of     
e|--x--x--x--x--x--0--0--0--0--0--x--x--x--x--x--x--x--x--x--x--|
B|--3--3--3--3--3--5--5--5--5--5--3--3--3--3--3--3--3--3--3--3--|
G|--0--0--0--0--0--0--0--0--0--0--0--0--0--0--0--0--0--0--0--0--|
D|--2--2--2--2--2--2--2--2--2--2--0--0--0--0--0--0--0--0--0--0--|
A|--3--3--3--3--3--3--3--3--3--3--2--2--2--2--2--2--2--2--2--2--|
E|--x--x--x--x--x--x--x--x--x--x--3--3--3--3--3--3--3--3--3--3--|

    D                                Am
    sight             in your  whole life
e|--x--x--x--x--x--|--x--x--x--x--x--0--0--0--0--0--0--0--0--0--0--|
B|--3--3--3--3--3-o|--3--3--3--3--3--1--1--1--1--1--1--1--1--1--1--|
G|--2--2--2--2--2--|--2--2--2--2--2--2--2--2--2--2--2--2--2--2--2--|
D|--0--0--0--0--0--|--0--0--0--0--0--2--2--2--2--2--2--2--2--2--2--|
A|--0--0--0--0--0-o|--0--0--0--0--0--0--0--0--0--0--0--0--0--0--0--|
E|--2--2--2--2--2--|--2--2--2--2--2--0--0--0--0--0--0--0--0--0--0--|


             not  once  in  your  whole life
e|--0--0--0--0--0--0--0--0--0--0--0--0--0--0--0--0--0--0--0--0--|
B|--1--1--1--1--1--1--1--1--1--1--1--1--1--1--1--1--1--1--1--1--|
G|--2--2--2--2--2--2--2--2--2--2--2--2--2--2--2--2--2--2--2--2--|
D|--2--2--2--2--2--2--2--2--2--2--2--2--2--2--2--2--2--2--2--2--|
A|--0--0--0--0--0--0--0--0--0--0--0--0--0--0--0--0--0--0--0--0--|
E|--0--0--0--0--0--0--0--0--0--0--0--0--0--0--0--0--0--0--0--0--|

             not  once  in  your life
e|--0--0--0--0--0--0--0--0--------------------------------------|
B|--1--1--1--1--1--1--1--1--------------------------------------|
G|--2--2--2--2--2--2--2--2--------------------------------------|
D|--2--2--2--2--2--2--2--2--------------------------------------|
A|--0--0--0--0--0--0--0--0--------------------------------------|
E|--0--0--0--0--0--0--0--0--------------------------------------|


| ^  downstroke
| v  upstroke
Tap to rate this tab
# A B C D E F G H I J K L M N O P Q R S T U V W X Y Z