Song name
# A B C D E F G H I J K L M N O P Q R S T U V W X Y Z

Pineapple Thief - Reaching Out tab

----------------------------------------------------------------- 
Reaching Out - The Pineapple Thief 
----------------------------------------------------------------
Tabbed by: Sami
Tuning: Standard


Intro / Verse:

e|-------------------|
B|-------------------|
G|-0-0-0-0---0--0-0-0| x2
D|8-8-8-8-/10-10-7-7-|
A|-------------------|
E|-------------------|


e|-----------------|
B|-----------------|
G|-0-0-0-0--0-0-0-0| x2
D|2-2-2-2-/4-4-0-0-|
A|-----------------|
E|-----------------|

You look like I?ve ripped out all that?s left
I know those eyes
They?re telling me we?re dead


Bridge:
  em
e|--0--0----0--0----0--0----0--0-| 
B|-0--0--0-0--0--0-0--0--0-0--0--|
G|0--0----0--0----0--0----0--0---|
D|-------------------------------|
A|-------------------------------|
E|-------------------------------|
I can?t. I cannot tell you 

  C
e|--0--0----0--0----2--2----3--3-|
B|-1--1--1-1--1--1-1--1--1-1--1--|
G|0--0----0--0----0--0----0--0---|
D|-------------------------------|
A|-------------------------------|
E|-------------------------------|
why 

  em
e|--0--0----0--0----0--0----0--0-|
B|-0--0--0-0--0--0-0--0--0-0--0--|
G|0--0----0--0----0--0----0--0---|
D|-------------------------------|
A|-------------------------------|
E|-------------------------------|
I adore you I can never tell you 


  C
e|--0--0----0--0----2--2----3--3-|
B|-1--1--1-1--1--1-1--1--1-1--1--|
G|0--0----0--0----0--0----0--0---|
D|-------------------------------|
A|-------------------------------|
E|-------------------------------|
why


Verse 2:

You?re feeling this
I?ve never seen you act so cruel
As cruel as I can be 
to you


Bridge


Chorus:
      am               C/G              em          D
So I?m reaching out, I know that it?s too late
      am               C/G              em          D    C        em
So I?m reaching out, I know that it?s too late 

em
e|--------------|
B|--------------|
G|00000000000000| (cont.)
D|22222222222222|
A|--------------|
E|--------------|

e|----------------|----------------|----------------|----------------|
B|----------------|----------------|----------------|----------------|
G|0000000000000000|2222222222222222|4444444444442222|----------------| 
D|2222222222222222|2222222222222222|2222222222222222|2222222222222222|
A|----------------|----------------|----------------|3333333333333333|
E|----------------|----------------|----------------|----------------|

e|----------------|-----------------------|
B|----------------|-----------------------|
G|0000000022222222|4444444----------------| 
D|2222222222222222|22222222222222222222222|
A|----------------|-------3333333333333333|
E|----------------|-----------------------|


Chorus x2


                  em      
As cruel as I can be 
                        C
As cruel as I can be to you...


Chorus x2
Tap to rate this tab
# A B C D E F G H I J K L M N O P Q R S T U V W X Y Z