Song name
# A B C D E F G H I J K L M N O P Q R S T U V W X Y Z

Pinhead Gunpowder - Anniversary Song tab

Anniversary Song
By: Pinhead Gunpowder
Album: Nope
Tabbed By: Steve Gray (reizig@gmail.com)

Tuning: Standard EADGBE

Brand new song by Pinhead Gunpowder (awesome band) debuted at one of their recent shows
YouTube).  This song is simple; no strumming/timing included, just formatting to assist
while listening to the song.  There are two guitars, but if the second guitarist is 
more than playing the same chords at different parts of the neck then I can't hear it.

Verse:
    E5    B5    A5    E5  B5 x2
e|---------------------------|
B|---------------------------|
G|--9-----------------9------|
D|--9-----9-----7-----9---9--|
A|--7-----9-----7-----7---9--|
E|--------7-----5---------7--|
          ^(palm mute the B5)

Chorus:
    A5           E5           x2                 x2  A5           B5
e|----------------------------|------------------|-----------------------------|
B|----------------------------|------------------|-----------------------------|
G|---------------9-9-9-9-9-9--|----------6x6-6-6-|-----------------------------|
D|--7-7-7-7-7-7--9-9-9-9-9-9--|--6x6-6-6-6x6-6-6-|---7-7-7-7-7-7--9-9-9-9-9-9--|
A|--7-7-7-7-7-7--7-7-7-7-7-7--|--6x6-6-6-4x4-4-4-|---7-7-7-7-7-7--9-9-9-9-9-9--|
E|--5-5-5-5-5-5---------------|--4x4-4-4---------|---5-5-5-5-5-5--7-7-7-7-7-7--|


Riff 1:
    E5		  A5 B5	 E5	       C#5 B5  x2
e|---------------------------------------------|
B|---------------------------------------------|
G|--9-9-9-9-9-9----------9-9-9-9-9-9-----------|
D|--9-9-9-9-9-9---7--9---9-9-9-9-9-9---11--9---|
A|--7-7-7-7-7-7---7--9---7-7-7-7-7-7---11--9---|
E|----------------5--7-----------------9---7---|

Order:

Verse
Chorus
Riff 1	(Replace last 2 chords w/pick slide)
Verse
Chorus
Riff 1 (End on E5 022xxx)

Lyrics: (This is the best I could do)

Someone let you take the day and night
My fear is casting a shadow
The children drivin down the street tonight
My fear is chasing down this ave

The time has come for our days
When I stopped you walked away
Now we'll return
To the ashes that I've burned
To sing a song about that sorrow

All my problems give me mounds of pain
but I stand by the words I wage
Yes I'll evolve a sentence on this stage
yes I'll be home by tomorrow

The time has come for our days
When I stopped you walked away
Now we'll return
To the ashes that I've burned
To sing a song about that sorrow
Tap to rate this tab
# A B C D E F G H I J K L M N O P Q R S T U V W X Y Z